>
 >
One Chain

One Chain Guitar Tabs

Santana Carlos - One Chain chords, tabs, tablatures, lyrics

Guitar lessons | Add/correct | Request | Top 50 tabs Artists:  A B C D E F G H I J K L M N O P Q R S T U V W X Y Z 0-9

One Chain Guitar Tabs – Santana Carlos

CD, Sheet music, Poster

Do you like One Chain? Share with your friends now
Tabs

Symbols:

h=hammer-on
p=pull-off
/=slide-up
\=slide-down
b=bend
r=release bend
x=blocked string
////=tremolo picking
()=let ring

Tuning:Standard

Both guitars:
e|--------------------|
B|--------------------|
G|-(7)----10-7---12-7-|
D|--x------x-x----x-x-|
A|-(5)-----8-5---10-5-|
E|--------------------|
  0:13

  Guitar 1:       Guitar 2:
e|------------|--------------|
B|------------|--------------|
G|-7---5---3--|---7---5---3--|
D|-8---7---5--|---8---7---5--|
A|-8---7---5--|--------------|
E|-6---5---3--|--------------|
  0:23

Both guitars:
e|-3--1--0--1-1--3-|-3--1--0--1-1--1-|
B|-3--3--1--3-3--3-|-3--3--1--3-3--1-|
G|-3--2--2--2-2--4-|-3--2--2--2-2--2-|
D|-5--0--2--0-0--5-|-5--0--2--0-0--2-|
A|-5-----0-------5-|-5-----0-------0-|
E|-----------------|-----------------|
  0:28

e|-5--5--3--|-3--5--5--3--|-3--5--5--3-|
B|-6--5--3--|-5--6--5--3--|-5--6--5--3-|
G|-7--5--3--|-5--7--5--3--|-5--7--5--3-|
D|-7--7--5--|-5--7--7--5--|-5--7--7--5-|
A|-5--7--5--|-3--5--7--5--|-3--5--7--5-|
E|----------|-------------|------------|
  0:35

e|-3--1--0--1-1--3-|-3--1--0--1-1--1-|
B|-3--3--1--3-3--3-|-3--3--1--3-3--1-|
G|-3--2--2--2-2--4-|-3--2--2--2-2--2-|
D|-5--0--2--0-0--5-|-5--0--2--0-0--2-|
A|-5-----0-------5-|-5-----0-------0-|
E|-----------------|-----------------|
  0:48

e|------------------------------------------------------|
B|------------------------------------------------------|
G|-(7)--10--7--12--7--10--7--2--5--7/9\5--10--7--12--7--|
D|--x----x--x---x--x---x--x--x--x--x-x-x---x--x---x--x--|
A|-(5)---8--5--10--5---8--5--0--3--5/7\5---8-5---10--5--|
E|------------------------------------------------------|
  0:56

  Guitar 1:       Guitar 2:   
e|-------------|-------------|
B|-------------|-------------|
G|--7---5---3--|--7---5---3--|
D|--8---7---5--|--8---7---5--|
A|--8---7---5--|-------------|
E|--6---5---3--|-------------|
  1:09

VERSE AND CHORUS:
e|----------------------|
B|----------------------|
G|-(7)---7-7-7---7-7-7--|
D|--5----5-5-5---5-5-5--|
A|----------------------|
E|----------------------|
  1:14

e|------------|
B|------------|
G|-7---5---3--|
D|-8---7---5--|
A|-8---7---5--|
E|-6---5---3--|
  1:26

  SOLO:
e|------------------------|-----------6h8-6-(6)--|
B|-8h10\8-8p6-6p5---6-----|-6h8-6-(6)------------|
G|----------------7---5h7-|----------------------|
D|------------------------|----------------------|
A|------------------------|----------------------|
E|------------------------|----------------------|
  2:43

e|----------------------------|
B|-8h10\8-8p6-6p5-5---6-------|
G|------------------7---5h(7)-|
D|----------------------------|
A|----------------------------|
E|----------------------------|
  2:51

  Guitar 2:
e|---------------|
B|---------------|
G|---------------|
D|---------------|
A|-1-1--0---0-1--|
E|--------3------|
  3:03

  Guitar 1:
e|-15b(17)--15b17r15-------|
B|-------------------18p15-|
G|-------------------------|
D|-------------------------|
A|-------------------------|
E|-------------------------|
  3:05

  Guitar 2:
e|--------------|
B|--------------|
G|--------------|
D|-----------0--|
A|-1-1-0---0----|
E|-------3------|
  3:07

  Guitar 1:
e|-20b22-22-20b22r20b22--|
B|-----------------------|
G|-----------------------|
D|-----------------------|
A|-----------------------|
E|-----------------------|
  3:09

e|------------------------------------------------------------------------|
B|------------------------------------------------------------------------|
G|------------------------------------------------------------------------|
D|------------------------------------------------------------------------|
A|-3-3-3-3-3-3-3-3-3-3-3-3-3-3-3-3----1h3-3---1h3-3---1h3---1h3-3---1h3-3-|
E|----------------------------------3-------3-------3-----3-------3-------|
  3:11


  Guitar 1:       Guitar 2:
e|------------|--------------|
B|------------|--------------|
G|-7---5---3--|---7---5---3--|
D|-8---7---5--|---8---7---5--|
A|-8---7---5--|--------------|
E|-6---5---3--|--------------|
  3:33



e|--------------------------|--------------------------------|
B|--------------------------|--------------------------------|
G|--------------------------|--------------------------------|
D|-------------------0-0h3--|-----------------------------3--|
A|-////3--3h5--////3--------|-////3--3h5--3-3-3-3-----3h5----|
E|--------------------------|---------------------3h5--------|
  4:18

e|------------------------|---------------------------------|
B|------------------------|---------------------------------|
G|------------------------|---------------------------------|
D|-------------------0h3--|-----------------------5/7-3-0h3-|
A|-////3--3h5--////3------|-////3--3h5--3-3-3-3-3-----------|
E|------------------------|---------------------------------|
  4:34

e|--------------------------|
B|--------------------------|
G|--------------------------|
D|-------------------0-0h3--|
A|-////3--3h5--////3--------|
E|--------------------------|
  4:42

e|---------------------------------------|
B|---------------------------------------|
G|---------------------------------------|
D|---------------------------------------|
A|---1h3-3---1h3-3---1h3---1h3-3---1h3-3-|
E|-3-------3-------3-----3-------3-------|
  4:44


  Guitar 1:       Guitar 2:
e|------------|--------------|
B|------------|--------------|
G|-7---5---3--|---7---5---3--|
D|-8---7---5--|---8---7---5--|
A|-8---7---5--|--------------|
E|-6---5---3--|--------------|
  5:04

  SOLO 2:
e|---------------------------3-----1--|
B|-10p8-8p6-6p5---5-6-8/10---3--3--3--|
G|--------------7------------4-----2--|
D|---------------------------5-----0--|
A|---------------------------5--------|
E|---------------------------3--------|
  5:08

e|---------------------------3-----1-----|
B|-10p8-8p6-6p5---5-6-8/10---3--3--3--3--|
G|--------------7------------4-----2-----|
D|---------------------------5-----0-----|
A|---------------------------5-----------|
E|---------------------------3-----------|
  5:16

e|-------------------------3------1-----------------|
B|-10p8-8p6-6p5---5-6-8/10---3-3--3--3-3-3-1h3p1----|
G|--------------7-----------------2--------------2--|
D|--------------------------------0-----------------|
A|--------------------------------------------------|
E|--------------------------------------------------|
  5:24

e|---------------------------3------1------|
B|-10p8-8p6-6p5---5-6-8/10---3-3-3--3-3-3--|
G|--------------7------------4------2------|
D|---------------------------5------0------|
A|---------------------------5-------------|
E|---------------------------3-------------|
  5:33

e|--------------------------|
B|-10p8-8p6-6p5---5-6-8/10--|
G|--------------7-----------|
D|--------------------------|
A|--------------------------|
E|--------------------------|
  5:40



Then:
e|----------------------------------------------------|
B|----------------------------------------------------|
G|-7---7-7-7---7-7-7---7-7-7---7-7-7---7-7-7---7-7-7--|
D|-0---0-0-0---0-0-0---0-0-0---0-0-0---0-0-0---0-0-0--|
A|----------------------------------------------------|
E|----------------------------------------------------|
  6:13

e|---------------------------3------1-----------------|
B|-10p8-8p6-6p5---5-6-8/10---3-3-3--3-3-3--3--1h3p1---|
G|--------------7------------4------2---------------2-|
D|---------------------------5------0-----------------|
A|---------------------------5------------------------|
E|---------------------------3------------------------|(X2)
  6:24

e|---------------------------3----1------|
B|-10p8-8p6-6p5---5-6-8/10---3-3--3-3-3--|
G|--------------7------------4----2------|
D|---------------------------5----0------|
A|---------------------------5-----------|
E|---------------------------3-----------|
  6:45

e|-------13----------------13-----------------------------|
B|-13b15----13b15-13b15-15----13h15----13-----------------|
G|----------------------------------14----12h14p12--------|
D|-------------------------------------------------15p12--|
A|--------------------------------------------------------|
E|--------------------------------------------------------|
  6:53

e|-15b17--15b17--15b17--15b17--15b17--15b17--15b17--15b17--15b17--|
B|----------------------------------------------------------------|
G|----------------------------------------------------------------|
D|----------------------------------------------------------------|
A|----------------------------------------------------------------|
E|----------------------------------------------------------------|
  6:58

e|-15b17r15--15p13--13p12-12----13-15b17-15b17--|
B|---------------------------15-----------------|
G|----------------------------------------------|
D|----------------------------------------------|
A|----------------------------------------------|
E|----------------------------------------------|
  7:01

e|-13b15-13b15-13b15-13b15-13b15-13b15-13b15r13b15-13b15-13b15r13-----------------|
B|----------------------------------------------------------------15-13-15-13/15--|
G|--------------------------------------------------------------------------------|
D|--------------------------------------------------------------------------------|
A|--------------------------------------------------------------------------------|
E|--------------------------------------------------------------------------------|
  7:06

e|-------10-10-10-10--------10-10-10-10--------10--------|
B|-13b15--------------13b15--------------13b15----13b15--|
G|-------------------------------------------------------|
D|-------------------------------------------------------|
A|-------------------------------------------------------|
E|-------------------------------------------------------|
  7:09

e|--------------------------------------|
B|-15-13--------------------------------|
G|-------14-12-12/14-14-12-------12/14--|
D|-------------------------15-12--------|
A|--------------------------------------|
E|--------------------------------------|


e|------------------------------------------------------------|
B|-10-10-10-10--13p10--10-10-10-10--13p10--10-10-10-10-13p10--|
G|------------------------------------------------------------|
D|------------------------------------------------------------|
A|------------------------------------------------------------|
E|------------------------------------------------------------|. . .END





Comments


Popular Santana Carlos tabs & chords
Apache Smooth Tabs
Black Magic Woman Tabs
Do You Like The Way Tabs
Feels Like Fire (Intro Ver 2) Tabs
Hold On Tabs
Hope Youre Feeling Better Tabs
Hoy Es Adios Tabs
Jingo Tabs
Maria Maria Tabs
Nothing At All Tabs


Song lyrics



↑ Back to top | Tablatures and chords are parodies/interpretations of the original songs. You may use it for private study, scholarship, research or language learning purposes only
© 2014 AZChords.com Contact us | Privacy policy | DMCA | Add/correct tabs | Request tabs | Top 50 tabs