» » »

Santana Carlos, Nothing At All Tabs (ver.1)

Artists:  A B C D E F G H I J K L M N O P Q R S T U V W X Y Z # 

Nothing At All Tabs (ver.1)

Santana Carlos Tabs
 Rating:
4/5 (4 votes)
Nothing At All lessons Tabs too difficult? Try these video lessons and learn fast
1
                


			     Nothing at All by Carlos Santana

Tuning: Standard 
/  slide up
h  hammer-on

e------------------------------------------------|
B------------------------------------------------|
G----12-14-15---15-14--12-14-15-14-15---12-14-15-|
D-12---------------------------------------------|
A------------------------------------------------|
E------------------------------------------------|

e------------------------------------------------------------|
B-13---------------------------------------------------------|
G-----15-14---15----14h15p15-12---12-12-12----12-------------|
D----------------12------------------------15----15-12-10/12-|
A------------------------------------------------------------|
E------------------------------------------------------------|

e-----------------------------------------------------------------------|
B-----------------------------------------------------------------------|
G-----------------------------------------------------------------------|
D------------------------12-10-12-10----12-------------12^-12^-10-------|
A------------------------------------12---------------------------------|
E-----------------------------------------------------------------------|
 I am a victim of my time             A product of my age

e--------------------------------------------------------------------|
B--------------------------------------------------------------------|
G-----------------------------------------------------12-15-15-14-12-|
D-----------------------------------------------12-15----------------|
A-----------------------------------10-12-13/15----------------------|
E--------------------------------------------------------------------|
  There was no choosing my direction                                

  I was a holy man but now with all my trials behind me, I am weakened by conviction                         

e----------------------------------------------------|
B----------------------------------------------------|
G-15-15-14-14-12-12----------------------------------|
D-------------------12-10-12----------------10-12/14-|
A----------------------------------------12----------|
E----------------------------------------------------|
                             And so I walk

e-----------------------------------------------------------------------|
B-----------------------------------------------------------------------|
G-------------------------12--------------------------------------------|
D-------------------12-15----15-12-15---------------------12^-12^-10-10-|
A-----------------------------------------------------------------------|
E-----------------------------------------------------------------------|
  To try to get away                 Knowing that someday              

  I'll finally have to face           The fear that will come

e---------------------------------------------------------|
B---------------------------------------------------------|
G------------------------------------------------------12-|
D-12-x-12-x--------------------------------------12-15----|
A-----------10-10--------------------10-12-13-15----------|
E---------------------------------------------------------|

e---------------------------------------------------------------------------|
B---------------------------------------------------------------------------|
G---------------------------------------------------------------------------|
D---------------------------------------------------------------------------|
A-----------------------------------------------------------12-10-12-10-10--|
E---------------------------------------------------------------------------|
  From knowing that the one thing I had left was you, and now you're gone 

e----------------------------------------------------------------------------------|
B----------------------------------------------------------------------------------|
G----------12-15-12-15-------------------------------------------------------------|
D-12-12-15----------------12-10-10----10-------------------------------------------|
A----------------------------------13-------12-15-13-12-13-10----------------------|
E-----------------------------------------------------------------10-12-10-8-6-5-3-|

e------------------------------------------------------------------------|
B------------------------------------------------------------------------|
G------------------------------------------------------------------------|
D-----------------------------12--10-----------------12-10---------------|
A--------------------------12---12--13-15-13-15-13---12------13-12-13-12-|
E------------------------------------------------------------------------|
  You are the victim of my crimes                  a product of my rage,

e-------------------------------------------------|
B-------------------------------------------------|
G----------------------------------15-15-15-15-14-|
D-------------------------------------------------|
A------------------------13-12-10-----------------|
E-------------------------------------------------|
  you're a beautiful distraction

e--------------------------------|
B--------------------------------|
G-12-----------------------------|
D----12-12--12-13-12-13-12-12-10-|
A--------------------------------|
E--------------------------------|
                                See I get you lockeed away outside,            

e---------------------------------------------------------------------------------|
B------------------------------------------------------------------------13-------|
G-12-10----------------------------------------------------15-15-15-15-14---15-14-|
D-------13-12-10------------------------------------------------------------------|
A---------------------------------------------------------------------------------|
E---------------------------------------------------------------------------------|
                and let misery provide and now I am changed

e-------------------------------------------------------------|
B-------------------------------------------------------------|
G-------------------------------------------------------------|
D-------------------------------------------------------------|
A----------------------------------------10-10-12-10-12-10-10-|
E-------------------------------------------------------------|
  So now I walk to try to find some space                    

e------------------------------------------------------------------------------|
B------------------------------------------------------------------------------|
G----------------------------------------------15-14-12----------12------------|
D-------------------------------------------------------15-12-15---------------|
A------------------------------------------------------------------------------|
E------------------------------------------------------------------------------|
  Where I can be alone to live with my mistakes


  And the fear that will come from knowing that the one thing I had left was you, and now your gone

  Is there nothin at all, that I can do to turn your heart

e----------------------------------------------------------------------------------|
B----------13----13-15^15----------------------------------------------------------|
G-12-14-15----15-------------------------------------------------------------------|
D----------------------------------------------------------------------------------|
A----------------------------------------------------------------------------------|
E----------------------------------------------------------------------------------|
                   Is there nothin to lean on, that could help you raise the stars, 

e----------------------------------------------13-15--13-15-17-20^20^20^/0-|
B----------------------------------------13-15-----------------------------|
G----------------------------12-12-14-15-----------------------------------|
D--------------------------------------------------------------------------|
A--------------------------------------------------------------------------|
E--------------------------------------------------------------------------| 
  And I could use a little strength before I fall, is there nothing at all?

e-----------------------------------------------------|
B-----------------------------------------------------|
G-----------------------------------------------------|
D-------------------------12-12-15^15-15^-12-12-10-10-|
A-----------------------------------------------------|
E-----------------------------------------------------|
  I am a victim of my time                           

e---------------------------------------------------------------------|
B---------------------------------------------------------------------|
G------------------------------------------------15-15-15-14-12-14-15-|
D---------------------------------------------------------------------|
A---------------------------------------------------------------------|
E---------------------------------------------------------------------|
  A product of my age, you alone are my obsession    
  
e--------------------------------------------------------------------------|
B--------------------------------------------------------------------------|
G------------------------------------------------------12-15---------------|
D------------------------------------------------12-15---------------------|
A------------------------------------------10-12---------------------------|
E------------------------------10-10-10/13---------------------------------|
  You are the one I left behind              You've been heavy on my mind, 

e------------------------------------------------|
B------------------------------------------------|
G------------------------------------------------|
D------------------------------------10----------|
A---------------------------------13----13-12-10-|
E------------------------------------------------|
  It's been a lonely road I travel

e---------------------------------------------------------------------------|
B---------------------------------------------------------------------------|
G------------------------------------15-15-15-15-14-12----------------------|
D---------------------------------------------------------------------------|
A---------------------10----------------------------------------------------|
E------------10-10-13----13-13-12-------------------------------------------|
  And so I walk to try to get away                     Knowing that someday 

e-------------------14-12----------------12----------------------------------|
B-------------------------15-14-12-14-15-------------------------------------|
G----------------------------------------------------------------------------|
D------------------------------------------------------------12--12-10-------|
A----------------------------------------------------------------------13-12-|
E----------------------------------------------------------------------------|
  I'll finally have to face             The fear that will come       

e--------------------------------------------------------------|
B-12-12-14-12---10-10-12-10--10h12^p10-------------------------|
G--------------------------------------12----------------------|
D--------------------------------------------------------------|
A--------------------------------------------------------------|
E--------------------------------------------------------------|
  The one thing I had left  was you         and now you're gone

  Is there nothin at all, that I can do to turn your hea -

e---------------------|
B----------------13^15|
G-12-14-15-14-15------|
D---------------------|
A---------------------|
E---------------------|
  - eart             Is there nothin to lean on that can help you raise the stars

e------------------------------------------------------13-15-17-17-18-18-20^-20^-20^-20^-20^20^20^20^20^-|
B------------------------------------------------13-15---------------------------------------------------|
G----------------------------------------12-14-15--------------------------------------------------------|
D--------------------------------------------------------------------------------------------------------|
A--------------------------------------------------------------------------------------------------------|
E--------------------------------------------------------------------------------------------------------|
  And I could use a little strength before I fall          Is there nothing at all?

e-------------------------------------------------------------------------------------------------------------------|
B-----------13-15-13-------------------------------------------13-15------------------------------------------------|
G-12--14-15----------12-----12----15-12-12-12-12/17---12-14-15-------12-12--15-14-12-12-12-15-12-----------12-12-12-|
D------------------------10----10----------------------------------------------------------------15-12--15----------|
A-------------------------------------------------------------------------------------------------------------------|
E-------------------------------------------------------------------------------------------------------------------|

e----------------------------------------------------------------------------------|
B-----------------13---------------------------------------------------------------|
G-12--12-12-14-15-----15-14^14-12-15-12-15--12-------12-14^-12-14^-14^-14^-14^-14^-|
D----------------------------------------------15-12-------------------------------|
A----------------------------------------------------------------------------------|
E----------------------------------------------------------------------------------|
                                                                                                        

e-----------------------------------------------------------------------|
B-------------16------------------------------------------16------------|
G-15-17-15-17----17-15----------------/-17----15-17-15-17----17-15-/-17-|
D-----------------------------------------------------------------------|
A-----------------------------------------------------------------------|
E-----------------------------------------------------------------------|
                    Is there nothin at all

e-----------------------------------------------------------|
B---------------------------------------------16------------|
G---------------------------------15-17-15-17----17-15-/-17-|
D-----------------------------------------------------------|
A-----------------------------------------------------------|
E-----------------------------------------------------------|
  That I can do to turn your heart                    Is there nothin to lean on

e---------------------------------------17-16-19-17-16-19-17-16-15----------------------17-16-17-|
B-13^15-13^15-13^15-13^15---------------------------------------------13-15-13-------------------|
G------------------------------------------------------------------------------15-14-12----------|
D------------------------------------------------------------------------------------------------|
A------------------------------------------------------------------------------------------------|
E------------------------------------------------------------------------------------------------|
  That can help you raise the stars           And I could use a little strength before I fall     

e---16-17-19-17-19-20^-20^-20^-20^-|
B----------------------------------|
G----------------------------------|
D----------------------------------|
A----------------------------------|
E----------------------------------|
    Is there nothing at all?

e-------------------------------------------------------------------------------------------------|
B----13-15-13-15---------------------------13-15-13-15^-15^-15^-15^15-----------13----------------|
G-15------------------------------------15-----------------------------12/15-14----15-14-15-14-12-|
D-------------------------------------------------------------------------------------------------|
A-------------------------------------------------------------------------------------------------|
E-------------------------------------------------------------------------------------------------|
                 Is there nothin at all?
            
Submit corrections

comments powered by Disqus
↑ Back to top | Santana Carlos Tabs for Nothing At All. Lyrics for acoustic guitar and electric guitar. 1 Tablatures and chords are parodies/interpretations of the original songs. You may use it for private study, scholarship, research or language learning purposes only