>
 >
Life Is A Lady

Life Is A Lady Guitar Tabs

Santana Carlos - Life Is A Lady chords, tabs, tablatures, lyrics

Guitar lessons | Add/correct | Request | Top 50 tabs Artists:  A B C D E F G H I J K L M N O P Q R S T U V W X Y Z 0-9

Life Is A Lady Guitar Tabs – Santana Carlos

CD, Sheet music, Poster

Do you like Life Is A Lady? Share with your friends now
Tabs

Symbols:

h=hammer-on
p=pull-off
/=slide-up
~=left hand vibrato
b=bend
r=release bend

LIFE IS A LADY:
e|-------------------12b13r12--------|
B|-10~~~--11-10---10----------10~~~--|
G|-----------------------------------|
D|-----------------------------------|
A|-----------------------------------|
E|-----------------------------------|
  0:07

e|-------------------------------------------------------|
B|-10--11--13/15----------10--------------10-------------|
G|----------------10h12~------10--12~~--------10--12~~~--|
D|-------------------------------------------------------|
A|-------------------------------------------------------|
E|-------------------------------------------------------|
  0:20

e|-------------------12b13r12--------|
B|-10~~~--11-10---10----------10~~~--|
G|-----------------------------------|
D|-----------------------------------|
A|-----------------------------------|
E|-----------------------------------|
  0:36

e|-----------------------------------------|
B|-10--11--13-15---------8h10p8------8~~~--|
G|----------------10h12----------10--------|
D|-----------------------------------------|
A|-----------------------------------------|
E|-----------------------------------------|
  0:48

e|-----------10--7h10p7~~~--|
B|-7--8--10-----------------|
G|--------------------------|
D|--------------------------|
A|--------------------------|
E|--------------------------|
  0:54

e|-10/12--12--12h15--12--10-----------------10/12--12~~~--|
B|--------------------------12--10-------12---------------|
G|---------------------------------12--9------------------|
D|--------------------------------------------------------|
A|--------------------------------------------------------|
E|--------------------------------------------------------|
  0:59

e|-17--15--14h15p14---14--15--15/17\14----------14--13--|
B|-------------------------------------15~---15---------|
G|------------------------------------------------------|
D|------------------------------------------------------|
A|------------------------------------------------------|
E|------------------------------------------------------|
  1:04

e|-12--10----10--12---10--------------------|
B|--------13-------------13--12--13--12~~~--|
G|------------------------------------------|
D|------------------------------------------|
A|------------------------------------------|
E|------------------------------------------|
  1:16

e|-------------------------8--10--10---8--10--12~~~--|
B|-8h10--8-10-8---8h10--12---------------------------|
G|---------------------------------------------------|
D|---------------------------------------------------|
A|---------------------------------------------------|
E|---------------------------------------------------|
  1:22


e|---------10-8------------------------------13-12-13--|
B|-8/10-10------10-8----8--8h10--10~~~----10-----------|
G|-------------------10--------------------------------|
D|-----------------------------------------------------|
A|-----------------------------------------------------|
E|-----------------------------------------------------|
  1:38

e|-12-13--13h15----13-15-16b17r16b17---13-15-16b17r16b17~~~~~--|
B|-------------------------------------------------------------|
G|-------------------------------------------------------------|
D|-------------------------------------------------------------|
A|-------------------------------------------------------------|
E|-------------------------------------------------------------|
  1:48


HOLIDAY:
e|--9---7---10--|
B|-10--10---10--|(Listen to the song, to check the rythm)
G|--------------|
D|--------------|
A|--------------|
E|--------------|
  2:01

e|--------------------------10-----------------------------|
B|-10-----10-----10------10-----12--10------12--10h12--10--|
G|----11-----11------11-----------------11-----------------|
D|---------------------------------------------------------|
A|---------------------------------------------------------|
E|---------------------------------------------------------|
  2:22

e|----------------------------------------------------|
B|-10-----10-----10-----10--12------------------------|
G|----11-----11-----11---------9/11--9--7-----11--10--|
D|-----------------------------------------9----------|
A|----------------------------------------------------|
E|----------------------------------------------------|
  2:27

e|-------------------------10--------------------------|
B|-10-----10-----10-----10----12--10----12--10/12--10--|
G|----11-----11-----11---------------11----------------|
D|-----------------------------------------------------|
A|-----------------------------------------------------|
E|-----------------------------------------------------|
  2:33

e|---------------------------------------------------------------|
B|-10-----10-----10------------10-10--8-8-7--5/7-7-5---7--5/7----|
G|----11-----11-----11--11--12-----------------------7--------7--|
D|---------------------------------------------------------------|
A|---------------------------------------------------------------|
E|---------------------------------------------------------------|
  2:38

e|----------------------------------------------------|
B|-7-8-7---------------5~~~------------------------7--|
G|-------9-7-----5/7-5---------------------------8----|
D|-----------9-7-------------------------7-9-11-------|
A|--------------------------------7-9-11--------------|
E|----------------------------------------------------|
  2:49

e|-------------------------10--------------------------|
B|-10-----10-----10-----10----12--10----12--10h12--10--|
G|----11-----11-----11---------------11----------------|
D|-----------------------------------------------------|
A|-----------------------------------------------------|
E|-----------------------------------------------------|
  2:55

e|----------------------------------------------------|
B|-10-----10-----10-----10--12------------------------|
G|----11-----11-----11---------9/11--9--7-----11--10--|
D|-----------------------------------------9----------|
A|----------------------------------------------------|
E|----------------------------------------------------|
  3:00

e|------------------------10-------10------------------------|
B|-10-----10-----10----10----10/12----12-10----12--10/12-10--|
G|----11-----11-----11----------------------11---------------|
D|-----------------------------------------------------------|
A|-----------------------------------------------------------|
E|-----------------------------------------------------------|
  3:06

e|------------------------------------------10--12/14--14p12----14--12/14--|
B|-10-----10-----10------------10-10--12-12------------------15------------|
G|----11-----11-----11--11--12---------------------------------------------|
D|-------------------------------------------------------------------------|
A|-------------------------------------------------------------------------|
E|-------------------------------------------------------------------------|
  3:12

e|-14-12-------12---------------------------|
B|-------15-14----15-14--12--10--12/14--12--|
G|------------------------------------------|
D|------------------------------------------|
A|------------------------------------------|
E|------------------------------------------|
  3:19

e|-14-17-17--14-17-17--14-17--14-17--14-17--|
B|------------------------------------------|
G|------------------------------------------|
D|------------------------------------------|
A|------------------------------------------|
E|------------------------------------------|
  3:22

e|-19-19-19-19-19---19-19--17h19p17--|
B|-----------------------------------|
G|-----------------------------------|
D|-----------------------------------|
A|-----------------------------------|
E|-----------------------------------|
  3:27

e|-9-----9-----9-----9---------9---10-----10-----10-----10-10-12--|
B|---10----10----10----10--12---------12-----12-----12------------|
G|----------------------------------------------------------------|
D|----------------------------------------------------------------|
A|----------------------------------------------------------------|
E|----------------------------------------------------------------|
  3:34

e|-9-----9-----9-----9---------9---10-----10-----10-----10-10-12--|
B|---10----10----10----10--12---------12-----12-----12------------|
G|----------------------------------------------------------------|
D|----------------------------------------------------------------|
A|----------------------------------------------------------------|
E|----------------------------------------------------------------|. . . END
  3:39





Comments


Popular Santana Carlos tabs & chords
Game Of Love Chords
Maria Maria Chords
Bonus Track Tabs
Esperando Tabs
Jingo Tabs
Let The Children Play Tabs
Migra Tabs
Mother Africa Tabs
Smooth Tabs
Smooth 2 Tabs


Song lyrics



↑ Back to top | Tablatures and chords are parodies/interpretations of the original songs. You may use it for private study, scholarship, research or language learning purposes only
© 2014 AZChords.com Contact us | Privacy policy | DMCA | Add/correct tabs | Request tabs | Top 50 tabs