>
 >
Bailando Aquatic Park

Bailando Aquatic Park Guitar Tabs

Santana Carlos - Bailando Aquatic Park chords, tabs, tablatures, lyrics

Guitar lessons | Add/correct | Request | Top 50 tabs Artists:  A B C D E F G H I J K L M N O P Q R S T U V W X Y Z 0-9

Bailando Aquatic Park Guitar Tabs – Santana Carlos

CD, Sheet music, Poster

Do you like Bailando Aquatic Park? Share with your friends now
Tabs

I remember you when I hear this song


Symbols:

h=hammer-on
p=pull-off
/=slide-up
b=bend
r=release bend
~=left hand vibrato
///=tremolo picking
()=let ring
Tr=Trill

Tuning:Standard


BAILANDO:

e|---------------------|-----------------------|
B|---------------------|-----------------------|
G|---7----7-----9----7-|---7----7--9------9-7--|
D|-7---10-----7---10---|-7---10------10-7------|
A|---------------------|-----------------------|
E|---------------------|-----------------------|(X2)
  0:08

e|-----------|
B|-----------|
G|-7---5~~~--|
D|-7---------|
A|-5---------|
E|-----------|(X4)
  0:22

  Guitar 1:    Guitar 2:
e|-----------|-----------------|
B|-----------|---8-8h10--8h10--|
G|-7---5~~~--|-9---------------|
D|-7---------|-----------------|
A|-5---------|-----------------|
E|-----------|-----------------|
  0:31

  Guitar 1:    Guitar 2:
e|-----------|--------------|
B|-----------|---8-12-8h10--|
G|-7---5~~~--|-9------------|
D|-7---------|--------------|
A|-5---------|--------------|
E|-----------|--------------|
  0:33

e|-----------|
B|-----------|
G|-7---5~~~--|
D|-7---------|
A|-5---------|
E|-----------|
  0:35

e|-------------|
B|-------------|
G|-7-7h9-5~~~--|
D|-------------|
A|-------------|
E|-------------|
  0:37

Pick slide and then:

e|-10----10--10----10--10----10--10----10-------------------------------|
B|-13b15-----13b15-----13b15-----13b15----13-10---10p8-------8p6--------|
G|----------------------------------------------7------10--5-----5-5h7--|
D|----------------------------------------------------------------------|
A|----------------------------------------------------------------------|
E|----------------------------------------------------------------------|
  0:43

e|-------------5------5------5------5--7b8-7b8-7b8-7b8--8p5--|
B|---------5h7----5h7----5h7----5h7--------------------------|
G|-5-////7---------------------------------------------------|
D|-----------------------------------------------------------|
A|-----------------------------------------------------------|
E|-----------------------------------------------------------|
  0:47

e|----15b17-17---17-17-17--14---10h12--|
B|-15----------------------------------|
G|-------------------------------------|
D|-------------------------------------|
A|-------------------------------------|
E|-------------------------------------|
  0:53

e|-19p15-17-19p15--17-17-17--14-10h12-------10--|
B|------------------------------------13p10-----|
G|----------------------------------------------|
D|----------------------------------------------|
A|----------------------------------------------|
E|----------------------------------------------|
  0:56

e|----------10----12-10-15p14--17-15--|
B|-10-13p10----13---------------------|
G|------------------------------------|
D|------------------------------------|
A|------------------------------------|
E|------------------------------------|
  1:00

e|-17p15-17-19-20p19p18--15-19p17--|
B|---------------------------------|
G|---------------------------------|
D|---------------------------------|
A|---------------------------------|
E|---------------------------------|
  1:02

e|-17-19--20b22-20b22-20b22-20b22--20b22-20b22-20b22--20--17h20p17--15h17--|
B|-------------------------------------------------------------------------|
G|-------------------------------------------------------------------------|
D|-------------------------------------------------------------------------|
A|-------------------------------------------------------------------------|
E|-------------------------------------------------------------------------|
  1:03

e|-17-17-17-------17-------17-------17----17-19-20p19p17----19p17--------------------------|
B|----------20b22----20b22----20b22----20----------------20-------20p17--------------------|
G|----------------------------------------------------------------------19p17-14-17h19p17--|
D|-----------------------------------------------------------------------------------------|
A|-----------------------------------------------------------------------------------------|
E|-----------------------------------------------------------------------------------------|
  1:07

Pick slide and then:



Then:

e|---------------------|-----------------------|
B|---------------------|-----------------------|
G|---7----7-----9----7-|---7----7--9------9-7--|
D|-7---10-----7---10---|-7---10------10-7------|
A|---------------------|-----------------------|
E|---------------------|-----------------------|(X2)
  1:26

  Guitar 1:    Guitar 2:
e|-----------|-----------------|
B|-----------|---8-8h10--8h10--|
G|-7---5~~~--|-9---------------|
D|-7---------|-----------------|
A|-5---------|-----------------|
E|-----------|-----------------|
  1:40

  Guitar 1:    Guitar 2:
e|-----------|--------------|
B|-----------|---8-12-8h10--|
G|-7---5~~~--|-9------------|
D|-7---------|--------------|
A|-5---------|--------------|
E|-----------|--------------|
  1:42

  Guitar 1:    Guitar 2:
e|-----------|-----------------|
B|-----------|---8-8h10--8h10--|
G|-7---5~~~--|-9---------------|
D|-7---------|-----------------|
A|-5---------|-----------------|
E|-----------|-----------------|
  1:44

  Guitar 1:
e|-----------|
B|-----------|
G|-7---5~~~--|
D|-7---------|
A|-5---------|
E|-----------|
  1:46
  
  Guitar 2:
e|------------------------------------------------------------|
B|-13b15-13b15-13b15-13b15-13b15--13--------------------------|
G|-----------------------------------14-12--------------------|
D|-----------------------------------------12-12h14-12p10-----|
A|--------------------------------------------------------12--|
E|------------------------------------------------------------|
  1:47

  Guitar 1:    Guitar 2:
e|-----------|-----------------|
B|-----------|---8-8h10--8h10--|
G|-7---5~~~--|-9---------------|
D|-7---------|-----------------|
A|-5---------|-----------------|
E|-----------|-----------------|
    1:50

  Guitar 1:    Guitar 2:
e|-----------|--------------|
B|-----------|---8-12-8h10--|
G|-7---5~~~--|-9------------|
D|-7---------|--------------|
A|-5---------|--------------|
E|-----------|--------------|
  1:51

  Guitar 1:    Guitar 2:
e|-----------|-----------------|
B|-----------|---8-8h10--8h10--|
G|-7---5~~~--|-9---------------|
D|-7---------|-----------------|
A|-5---------|-----------------|
E|-----------|-----------------|
  1:53

  Guitar 1:   Guitar 2:
e|------------|--------------------------------------------------------------------------------|
B|------------|-13b15-13b15-13b15r13--10h13p10----10-------------------------------------------|
G|-7-7h9-5~~~-|--------------------------------12----12b14-12p9--------------------------------|
D|------------|-------------------------------------------------12p10-------12p10--------------|
A|------------|-------------------------------------------------------12-10-------12p10-7------|
E|------------|---------------------------------------------------------------------------10p8-|
  1:55

LYRICS: 


"Bailando, bailando
 Bailando alegre, la muņeca! 
 Bailando, bailando
 Bailando alegre ella! 

 Bailando, bailando
 Bailando alegre, la muņeca! 
 Bailando, bailando
 Bailando alegre ella!"


Then:

e|-------------------------------------------------|
B|-------------------------------------------------|
G|-------------------------------------------------|
D|-------------------------------------------------|
A|-3-3-3-3--3h5----3-3-3-3--3h5----3-3-3-3-3--3-5--|
E|-------------------------------------------------|(X4)
  2:29

e|-----------|
B|-----------|
G|-7---5~~~--|
D|-7---------|
A|-5---------|
E|-----------|(X4)
  3:06

  Guitar 1:    Guitar 2:
e|-----------|-----------------|
B|-----------|---8-8h10--8h10--|
G|-7---5~~~--|-9---------------|
D|-7---------|-----------------|
A|-5---------|-----------------|
E|-----------|-----------------|
  3:14

  Guitar 1:    Guitar 2:
e|-----------|--------------|
B|-----------|---8-12-8h10--|
G|-7---5~~~--|-9------------|
D|-7---------|--------------|
A|-5---------|--------------|
E|-----------|--------------|
  3:16

  Guitar 1:    Guitar 2:
e|-----------|-----------------|
B|-----------|---8-8h10--8h10--|
G|-7---5~~~--|-9---------------|
D|-7---------|-----------------|
A|-5---------|-----------------|
E|-----------|-----------------|
  3:18

  Guitar 1:    Guitar 2:                  
e|--------------|---------------------------8~~~--(15)--|
B|--------------|-3-3/5--3h5~~~/8~~~--10~~~-------------|
G|-7-7h9--5~~~--|---------------------------------------|
D|--------------|---------------------------------------|
A|--------------|---------------------------------------|
E|--------------|---------------------------------------|
  3:21

AQUATIC PARK:
LYRICS:

"Woke up this mornin'
 The sun was shinin'
 You were on my mind
 And I knew right then and there
 My life would be filled with happiness and joy
 And oh, what a feelin', God almighty!"

e|---------------------------------------------|
B|-8-8-8---12-8---8-8-8---12-8/10--------------|
G|-------9--------------9---------7h9p7--9h12--|
D|---------------------------------------------|
A|---------------------------------------------|
E|---------------------------------------------|
  4:13

e|------------------------------------------|
B|---8-8-8---12-8---8-8-8-8---8-12-8h10~~~--|
G|-9-------9----------------9---------------|
D|------------------------------------------|
A|------------------------------------------|
E|------------------------------------------|
  4:21

e|------------------12h15--|
B|-12h15---10h12h15--------|
G|-------------------------|
D|-------------------------|
A|-------------------------|
E|-------------------------|
  4:26

e|-15b17-15b17-15b17--15b17r15--12h15p12----12--------------|
B|---------------------------------------15----15b17r15p12--|
G|----------------------------------------------------------|
D|----------------------------------------------------------|
A|----------------------------------------------------------|
E|----------------------------------------------------------|
  4:28

e|-14-15p14p12--10--14p12p10----12-10-----------10-12-10-------------------------|
B|---------------------------12-------12--10b12----------12-10b12-10p8---10p8----|
G|---------------------------------------------------------------------9------9--|
D|-------------------------------------------------------------------------------|
A|-------------------------------------------------------------------------------|
E|-------------------------------------------------------------------------------|
  4:32

e|-17-20--20b22r20~~~---17-20-22p20----15-17p15p14-12-14-10-10p7-7---------------------|
B|----------------------------------17-----------------------------8-8---8h10b12r10p8--|
G|-------------------------------------------------------------------------------------|
D|-------------------------------------------------------------------------------------|
A|-------------------------------------------------------------------------------------|
E|-------------------------------------------------------------------------------------|
  4:35

e|-12----12-12-12--12----12-12-12-12--12----12-12-12--12-12-12--15b17--|
B|-15b17-----------15b17--------------15b17----------------------------|
G|---------------------------------------------------------------------|
D|---------------------------------------------------------------------|
A|---------------------------------------------------------------------|
E|---------------------------------------------------------------------|
  4:43

e|-15b17-15b17-15b17-15b17-15b17-15b17-15b17-15b17--|
B|--------------------------------------------------|
G|--------------------------------------------------|
D|--------------------------------------------------|
A|--------------------------------------------------|
E|--------------------------------------------------|
  4:45

e|-15-14--15p14p12--10--14p12p10----------------------|
B|-------------------------------12p10----12p10-------|
G|-------------------------------------12-------12p9--|
D|----------------------------------------------------|
A|----------------------------------------------------|
E|----------------------------------------------------|
  4:48

e|--------------7------------5-7-----------------7-------------|
B|-8-8-8-8--8-8---8-8--5-7-8-----8--5-7-8--5h7h8---8h10--------|
G|------------------------------------------------------7h9p7--|
D|-------------------------------------------------------------|
A|-------------------------------------------------------------|
E|-------------------------------------------------------------|
  4:50

e|-------10---------------------|
B|-10b12----10b12--10-8---8h10--|
G|----------------------9-------|
D|------------------------------|
A|------------------------------|
E|------------------------------|
  5:00

e|----15h17----15h17p15----15-17--17b19-17b19-17b19--17p15--|
B|-17-------17----------17----------------------------------|
G|----------------------------------------------------------|
D|----------------------------------------------------------|
A|----------------------------------------------------------|
E|----------------------------------------------------------|
  5:04

e|-19-22-22p19--22p19-22p19-22p19--22b24-22b24-22b24-22b24-22b24-22b24-22b24--19p17--19h22p19-|
B|--------------------------------------------------------------------------------------------|
G|--------------------------------------------------------------------------------------------|
D|--------------------------------------------------------------------------------------------|
A|--------------------------------------------------------------------------------------------|
E|--------------------------------------------------------------------------------------------|
  5:09

e|-17b(19)-17b19--17b19-17b19-17b19--17-15-15h17--17b19-17b19--17-15--15h17--|
B|---------------------------------------------------------------------------|
G|---------------------------------------------------------------------------|
D|---------------------------------------------------------------------------|
A|---------------------------------------------------------------------------|
E|---------------------------------------------------------------------------|
  5:16

           Tr~~~~
e|-15p14p12------15b17-17-15b17--15p12----12------------------------12p10------------------|
B|-------------------------------------15----15p12---------10b12-12-------12p10-8---8------|
G|-------------------------------------------------14p12-9------------------------9---9p7--|
D|-----------------------------------------------------------------------------------------|
A|-----------------------------------------------------------------------------------------|
E|-----------------------------------------------------------------------------------------|
  5:22

e|-------------------7-10--10p7h10--|
B|------------7-8-10----------------|
G|-7------7-9-----------------------|
D|---9-10---------------------------|
A|----------------------------------|
E|----------------------------------|
  5:29

e|-12-15--15b17(X9)--15p12p10------------------|
B|----------------------------12-15p12-10p8----|
G|------------------------------------------9--|
D|---------------------------------------------|
A|---------------------------------------------|
E|---------------------------------------------|
  5:32

e|---------------|
B|----15b17--17--|
G|-16------------|(X several times)
D|---------------|
A|---------------|
E|---------------|. . . END
  5:38


That's all for one the best Santana songs EVER!





Comments


Popular Santana Carlos tabs & chords
Africa Bamba Tabs
Curacion Tabs
Dirty Dancin (Intro) Tabs
Esperando Tabs
Guajira Tabs
Love Is You Tabs
Nothing At All Tabs
One Chain Tabs
Persuasion Tabs
Primavera Tabs


Song lyrics



↑ Back to top | Tablatures and chords are parodies/interpretations of the original songs. You may use it for private study, scholarship, research or language learning purposes only
© 2014 AZChords.com Contact us | Privacy policy | DMCA | Add/correct tabs | Request tabs | Top 50 tabs