» » »

With A Little Help From My Friends Tabs (ver.1)

Artists:  A B C D E F G H I J K L M N O P Q R S T U V W X Y Z # 

With A Little Help From My Friends Tabs (ver.1)

Santana
Rating:
0/5 (0 votes)

Tabs too difficult? Try these video lessons and learn fast.
                PROPS GO TO: chris wilson

title= with a little help from my friends
written by= the beatles
performed by= carlos sanatana

key:
S==SLIDE
h=hammer on
p=pull of 
R=RING
b=bend 



E|----------------------------------------------------------
B|----15B---14V---12V---11H12--10-8-------------------------
G|----------------------12---------9------------------------
D|----------------------------------------------------------
A|----------------------------------------------------------
E|----------------------------------------------------------  REPEAT

E|----------------------------------------------------------
B|---15B---14V---12V---11H12--11H12--10-8-------------------
G|---------------------12-----12---------9------------------
D|----------------------------------------------------------
A|----------------------------------------------------------
E|----------------------------------------------------------  

E|----------------------------------------------------------
B|---15B---14V---12V--------------------------9-------------
G|----------------------------------------------------------
D|----------------------------------------------------------
A|----------------------------------------------------------
E|----------------------------------------------------------  

WHAT, WOULD YOU DO,IF I SANG OUT A TUNE,
WOULD YOU STAND UP, WALK OUT ON ME?
LEND ME YOUR EAR, AND I'LL SING YA' SONG,
I'LL TRY NOT TO SING OUT OF KEY.

E|----------------------------------------------------------
B|---15B---14V---12V-----12-15-12--12-15-12---15-14---------
G|-------------------------------------------------14-------
D|----------------------------------------------------------
A|----------------------------------------------------------
E|----------------------------------------------------------
 
WITH A LITTLE HELP FROM MY FRIENDS

E|---------------------------------------------------------
B|---15B---14V---11H12-11H12-11H12-11H12---10-8-------------
G|---------------12----12----12----12----------9------------
D|----------------------------------------------------------
A|----------------------------------------------------------
E|----------------------------------------------------------

WITH A LITTLE HELP FROM MY FRIENDS

E|----------------------------------------------------------
B|---15B---14V---11H12-11H12-11H12-11H12---10-8-------------
G|---------------12----12----12----12----------9------------
D|----------------------------------------------------------
A|----------------------------------------------------------
E|----------------------------------------------------------
WITH A LITTLE HELP FROM MY FRIENDS

E|----------------------------------------------------------
B|---15B---14V---12V----------------------9-----------------
G|----------------------------------------------------------
D|----------------------------------------------------------
A|----------------------------------------------------------
E|----------------------------------------------------------

WHAT DO YOU DO,WHEN MY LOVE IS AWAY,
DOES IT WORRY YOU TO FEEL ALONE?
HOW DO I FEEL BY THE END OF THE DAY,
ARE YOU SAD, CAUSE YOUR ON YOUR OWN?

E|----------------------------------------------------------
B|---16H17-16H17-16H17-16H17-16H17----15B---14V---15V-------
G|----------------------------------------------------------
D|----------------------------------------------------------
A|----------------------------------------------------------
E|----------------------------------------------------------  
 
E|----------------------------------------------------------
B|----11H12-11H12-11H12-11H12--10-8-------------------------
G|----12----12----12----12---------9------------------------
D|----------------------------------------------------------
A|----------------------------------------------------------
E|---------------------------------------------------------- 

WITH A LITTLE HELP FROM MY FRIENDS
E|----------------------------------------------------------
B|--15B---14V---11H12-11H12-11H12-11H12--10-8---------------
G|--------------12----12----12----12---------9--------------
D|----------------------------------------------------------
A|----------------------------------------------------------
E|----------------------------------------------------------  
 WITH A LITTLE HELP FROM MY FRIENDS

E|----------------------------------------------------------
B|---15B---14V---11H12-11H12-11H12-11H12--10-8--------------
G|---------------12----12----12----12---------9-------------
D|----------------------------------------------------------
A|----------------------------------------------------------
E|----------------------------------------------------------  
 WITH A LITTLE HELP FROM MY FRIENDS

E|---0--4--7--9--7S9---7S9---7S9---9-7-5--------------------
B|---------------------------------------7S(SLOWLY)2--------
G|----------------------------------------------------------
D|----------------------------------------------------------
A|----------------------------------------------------------
E|----------------------------------------------------------  

E|--0--4--7--9--7S9---7S9---7S9---9-9-9--7------------------
B|---------------------------------------9------------------
G|---------------------------------------9-(x16)------------
D|----------------------------------------------------------
A|----------------------------------------------------------
E|----------------------------------------------------------  

E|---2-------------------------------------------------------
B|---3---3---------------------------------------------------
G|---2---3---1-1-1-1-1-1-------------------------------------
D|-------3---2-2-2-2-2-2-------------------------------------
A|-----------2-2-2-2-2-2-------------------------------------
E|----------------------------------------------------------- X12

 SOLO:
E|----------------------------17B---16H17V---16H17-16H17-16H17-16H17-------------------
B|----16H17-16H17-16H17--15------------------------------------------------------------
G|-------------------------16----------------------------------------------------------
D|-------------------------------------------------------------------------------------
A|-------------------------------------------------------------------------------------
E|-------------------------------------------------------------------------------------

E|----------------------------------------------------------------------
B|----17P15---19P15---15H17--19H21-20S21-20S21----16S17V--16S17V--------
G|---------------------------------------------19-----------------------
D|----------------------------------------------------------------------
A|----------------------------------------------------------------------
E|----------------------------------------------------------------------


E|-----------------------------------------------------------------------
B|---------16S17-16S17---15-12---15P12-----------------------------------
G|---19-17------------------------------15H16-16---16-14-16-14-12-15S16--
D|-----------------------------------------------------------------------
A|-----------------------------------------------------------------------
E|-----------------------------------------------------------------------

E|-----------------------------------------------------------------------
B|-----------------------------------------------------------------------
G|---16-14-16-14-----------17----17-----19--21B--20--17----17----19------
D|---------------14-15S16-----16----16------------------16----16----17---
A|-----------------------------------------------------------------------
E|-----------------------------------------------------------------------

E|-----------------------------------------------------------------------
B|----16H17P16-16H17P16--14-----17P15-17---------------------------------
G|--------------------------16-----------15S16-14P12-14V-----------------
D|-----------------------------------------------------------------------
A|-----------------------------------------------------------------------
E|-----------------------------------------------------------------------



E|---------------3-------------------------------------------------------
B|---------------2------3------------------------------------------------
G|-----1---------3------3-------1----------------------------------------
D|-----2----------------3-------2----------------------------------------
A|-----2(X4)--------------------2(X6)------------------------------------
E|-----------------------------------------------------------------------X5

THAT SONG IS OFF OF THE CD JAM.
THE SOLO IS NOT AS ACUURATE AS I'D LIKE IT TO BE, BUT IF ANY CAN TAB A SANTANA SOLO PERFECTLY BY EAR, LET ME KNOW.
            
Tabs too difficult? Try these video lessons and learn fast.


comments powered by Disqus
↑ Back to top | Tablatures and chords are parodies/interpretations of the original songs. You may use it for private study, scholarship, research or language learning purposes only