» » »

Santana, Love Of My Life Tabs (ver.1)

Artists:  A B C D E F G H I J K L M N O P Q R S T U V W X Y Z # 

Love Of My Life Tabs (ver.1)

Santana Tabs
 Rating:
4/5 (4 votes)
Love Of My Life lessons Tabs too difficult? Try these video lessons and learn fast
                Okay, I have a burned Santana CD, and this is the intro to a song 
I _think_ is called “Love of my life.” Some notes are done so fast 
that they almost sound like a slide, so I put those in for 
convenience. Sounds great at home, or to show off for friends. 






e  ----------------------------------------------------------
B  ---------------------------------------------------------
G  ----------------------------7-\-5----5----------------- 
D  5-----7-----8---------------------------------7------- 
A  --------------------------------------------------------
E  ---------------------------------------------------------

 e ----------------------------------------------------------
B --------------------------6--------------------------------
G --------------------------------8-------------------------
D -----5-----7-----8-------------------7------------------
A ------------------------------------------------------------
E -------------------------------------------------------------

e  ---------------------------------------------------------------- 
B  ---------------------------------------------------------------- 
G  ---------------------5------------5-----5-----8-----7-------- 
D  7-----7-----8-----------------------------------------------5- 
A  ----------------------------------------------------------------- 
E  ------------------------------------------------------------------ 

e ---------------------------------------------------
B --------------------------------------------------
G ---------------------------------------------------
D-----------5-----5-----5---4--4-/-6------------
A---------------------------------------------------
E--------------------------------------------------
            
Submit corrections

comments powered by Disqus
↑ Back to top | Santana Tabs for Love Of My Life. Lyrics for acoustic guitar and electric guitar. Tablatures and chords are parodies/interpretations of the original songs. You may use it for private study, scholarship, research or language learning purposes only