» » »

Santana, I'm Winning Tabs (ver.1)

Artists:  A B C D E F G H I J K L M N O P Q R S T U V W X Y Z # 

I'm Winning Tabs (ver.1)

Santana Tabs
 Rating:
4/5 (4 votes)
I'm Winning lessons Tabs too difficult? Try these video lessons and learn fast
1
                D				Bm	         ~~~~~
		full...    ful		 ful     ful ful
|----|----|-----------------------|-----------10---------|
|----|----|-----10^``^(10)7-------|------10^----10^--10^-|
|----|----|----------------9^-9-7-|------------------x-x-|
|----|----|-----------------------|------------------x-x-|
|----|----|-----------------------|----------------------|
|----|----|-----------------------|----------------------|
|    |    |		          |	 	         |
|----|----|-----------------------|----------------------|
|----|----|-----------------------|----------------------|
|----|----|----7--7---7----7-7----|----4---4--------4----|
|----|----|7-7-----7---7-9--------|-4-4--4--------4------|
|----|----|-----------------------|----------------------|
|----|----|-----------------------|----------------------|

 Em					  A
	  ful	     ful         ful	   	    ful         ful
|---7-----------------------------------|------------------------------|
|-----10-7------------------------------|------------------------------|
|---------9^(9)^7-7-99^(9)^7-9-7-9^(9)^7|9--------7-9^(9)^7-9-7-9^-----|
|----------------9----------------------|--7-7--9----------------------|
|---------------------------------------|------------------------------|
|---------------------------------------|------------------------------|
|					|			       |
|---------------------------------------|------------------------------|
|---------------------------------------|------------------------------|
|-----9------9------------9--9----------|-----2--------2-----2-----2-2-|
|-9-9------9---------9--9---------------|-2-2-------2----------2-2-----|
|---------------------------------------|------------------------------|
|---------------------------------------|------------------------------|
								END INTRO
 G     1/2  1/2              1/2      full~~~~~           full~~~~~~
|--10-13^--13^---10--10--------------------|--------------------------|
|------------------13--13-10----------13^--|---13-10----10------------|
|---------------------------12^(12)-10-----|---------12----10^--------|
|------------------------------------------|--------------------------|
|------------------------------------------|--------------------------|
|------------------------------------------|--------------------------|

 Verse - "One day I was on the ground. When..."	 		END VERSE

 Chorus
 G A D  D	       Bm	        D		  Bm
         I'm winning     I'm winning       I'm winning       I'm winning
|------|--------------|----------------|-----------------|---------------7-|
|------|--------------|----------------|-----------------|---------------x-|
|------|----------x-x-|------------x-x-|-------------x-x-|-------------x---|
|------|----------x-x-|------------x-x-|-------------x-x-|-------------x---|
|------|--------------|----------------|-----------------|-----------------|
|------|--------------|----------------|-----------------|-----------------|

 Em		         A			     G  A  D       END
    I'm winning    and I don't intend on losing again		   CHORUS
|--------------x-x---|------------------------x-x--|-----------|
|--------------x-x---|------------------------x-x--|-----------|
|--------------------|------------------------x-x--|-----------|
|--------------------|-----------------------------|-----------|
|--------------------|-----------------------------|-----------|
|--------------------|-----------------------------|-----------|
 Chorus								
 D	        Bm	      Em	   A		  
|--------------|------------|-------------|--------------|
|--------------|------------|-------------|--------------|
|---7-7--7--77-|---4---4--4-|---9--9---99-|---2--2-2--22-|
|-77---7--79---|-44--4---4--|-99--9--99---|-22--2---22---|
|--------------|------------|-------------|--------------|
|--------------|------------|-------------|--------------|
		       		  END CHORUS
  G  A   D 	       	       G  A   D
|-3--5---2---|-2-----|------|--3--5---2----|
|-3--5---3---|-3-----|------|--3--5---3----|
|-4--6---2---|-2-----|------|--4--6---2----|
|-5--7---0---|-0-----|------|--5--7---0----|
|-5--7-------|-------|------|--5--7--------|
|-3--5-------|-------|------|--3--5--------|
OUTRO SOLO
 E
  ful~~~             ful	   ful~~~	ful    ~~~
|--------9----------------12-12-|---------9------------------|
|-12^-----12-9------------12-12-|--12^-----12-9--------------|
|-------------11-9--11^---13-13-|--------------11^(11)-9-x-x-|
|-----------------11------------|------------------------x-x-|
|-------------------------------|----------------------------|
|-------------------------------|----------------------------|
|				|			     |
|-------------------------------|----------------------------|
|-------------------------------|----------------------------|
|----9----9-----9------9-9------|----6--------6------6-------|
|--99-------9-----9-11----------|-6-6---6----------6---------|
|-------------------------------|----------------------------|
|-------------------------------|----------------------------|
 E				       C#m
 	 ful     ful..	      full~~~~        ful   ful      ful
|------------12-----------------------|------12^---12^--12-9--------------|
|-------12^-----12^``^(12)-9--12^-----|-----------------------------------|
|-------------------------------------|----------------------11^--11-9----|
|-------------------------------------|-----------------------------------|
|-------------------------------------|-----------------------------------|
|-------------------------------------|-----------------------------------|
|				      |					  |
|-------------------------------12-12-|-----------------------------------|
|-------------------------------12-12-|-----------------------------------|
|-----9----9--------9-------9--913-13-|----6------------6---------6x-x----|
|-9-9--------9--------9-11------------|-6-6------6-------------6---x-x----|
|-------------------------------------|-----------------------------------|
|-------------------------------------|-----------------------------------|
 F#m     full		     ~~~~	   B  ful      ful   ful      ful~~
|-------14^(14)-12----14------------------|--------------------------------|
|------------------14----12-12------------|--12^--12--12^---12^---12--12^--|
|-----------------------------------------|--------------------------------|
|-----------------------------------------|--------------------------------|
|-----------------------------------------|--------------------------------|
|-----------------------------------------|--------------------------------|
|					  |				   |
|------------------------------------x-14-|----------------------------x---|
|------------------------------------x-x--|---------------------------(x)--|
|------11------11----------------11-11----|----4-------4---4------4--4-----|
|-11-11-----11--------------11-11---------|-4-4------4--------4-4----------|
|-----------------------------------------|--------------------------------|
|-----------------------------------------|--------------------------------|
 E			      C#m
    ~~~~	ful	  full..	    ful~~     ful
|----------------------------|--------12-9------------------------|
|--(12)-12-----12^--12----12^``^(12)-9------12^--12-9-------------|
|----------11----------------|------------------------11^-11-9----|
|----------------------------|---------------------------------11-|
|----------------------------|------------------------------------|
|----------------------------|------------------------------------|
 E			       C#m
   ful	 	ful		  full   ful PB-fl
|--------9--------------------|----------14^--^14--14-12-|
|------9---12-9---------------|--------------------------|
|-11^-----------11^-11-9----9-|---11^--------------------|
|------------------------11---|--------------------------|
|-----------------------------|--------------------------|
|-----------------------------|--------------------------|
 F#m			     B
	   ful  PB-fl		      ful~~~	 ful	 ful~~~
|-14-------14^--^14---14-12-|-14-------------9--------9-------|
|---------------------------|----12---12^------9-12^-----12^--|
|---------------------------|---------------------------------|
|---------------------------|---------------------------------|
|---------------------------|---------------------------------|
|---------------------------|---------------------------------|
 E				      C#m
    ful    ful    ful         ful     ful  ful         ful~~~~
|-9------9------9------9-12-9------9-|----------------------|
|--12^----12^----12^---------12^-----|12^-12^(12)^9----12^--|
|------------------------------------|----------------------|
|------------------------------------|----------------------|
|------------------------------------|----------------------|
|------------------------------------|----------------------|
 E				       C#m
            full full full       full
|-------------------------------------|----------------|
|--12^9-12-9--------------------------|----------------|
|-----------11^--11^--11^---11-9-11^--|-9--------------|
|-------------------------------------|----11--11------|
|-------------------------------------|----------------|
|-------------------------------------|----------------|
            
Submit corrections

comments powered by Disqus
↑ Back to top | Santana Tabs for I'm Winning. Lyrics for acoustic guitar and electric guitar. 1 Tablatures and chords are parodies/interpretations of the original songs. You may use it for private study, scholarship, research or language learning purposes only