» » »

Santana, I Love You Much Too Much Tabs (ver.1)

Artists:  A B C D E F G H I J K L M N O P Q R S T U V W X Y Z # 

I Love You Much Too Much Tabs (ver.1)

Santana Tabs
 Rating:
4/5 (4 votes)
I Love You Much Too Much lessons Tabs too difficult? Try these video lessons and learn fast
1
                ***************************************
              Santana                 *
--------------------------------------* 
   I love you much too much           * 
                                      *
***************************************

Aqui les traigo esta cancion que otro de las grandes instrumentales de Santana, que puede
llegar a la altura de Samba Pa Ti, Europa, Life is a lady (que se las traere muy pronto),
Flor de luna (tambien se las traere), Revelations, etc...


(los acordes de esta cancion se los tendre despues)
                     vibrato
*------7---------------------------------------------------------------------*
*---------10--8--7/10^^^^^^^^--10--8--7---7h8^^^^^^^^-7h8-8-7h8p7------------*
*---------------------------------------9------------------------9/11^^^^^^^^*
*---9------------------------9-----------------------9-----------------------*
*----------------------------------------------------------------------------*
*----------------------------------------------------------------------------*


*-------------------*
*-------------------* 
*-----6--8--9-------* todo esto se repite con mas arreglos (pero puedes hacer los tuyos
*--9----------------*                                       al escuchar la cancion).
*-------------------*
*-------------------*


                                                                Full...1/2...Full                                                   
*---------------------------7-------------7h8-7h8p7-----------------------------*
*----7--8--10^^-10---8---10--10^^^^2---------------10--8--10-10b---------------*
*--9------------------------------------7---------------------------------------*
*-------------------------------------------------------------------------------*
*-------------------------------------------------------------------------------*
*-------------------------------------------------------------------------------*



*--7------------------------------------------------*
*----11^^^^--8--7-7-8/10-10^^^^--8-8-8h10p8--5/7^^^^*  despues de que se repita a partir de
*----------------9----------------------------------*  el ultimo texto, solo cambiara la ultima
*---------------------------------------------------*  parte (lo que esta en seguida de esto)
*---------------------------------------------------*  de la siguiente forma.
*---------------------------------------------------*



*--7---------------------------------------------------*
*----11^^^^--8p-7-7-8/10-10^^^^--7-7-7h10p7-8----------* despues de esto sigue un momento de
*----------------9----------------------------7-h-9^^^^* organo y otra guitarra despues lo siguiente.
*------------------------------------------------------*
*------------------------------------------------------*
*------------------------------------------------------*


   Full.Full....  Full..Full..... 1/2.                     Full.       Full.......
*---------------------------------14b..14-12---12-12-15p12-------------12..........-*
*------------------15b..15b-----------------15-------------15b..15-12^^-15b..15..15b*
*--14b..14b-------------------------------------------------------------------------*
*-----------------------------------------------------------------------------------*
*-----------------------------------------------------------------------------------*
*-----------------------------------------------------------------------------------*



*-----------------------------------------------------------------*
*------------------15-12^^^^--12--12-------12-12------------------* Yo creo que esto es mas que suficiente para que
*--12h14^^^^-12h14--------------14--14^^^^------14-11-14-14-12^^^^* puedan sacar el resto de la cancion por ustedes
*-----------------------------------------------------------------* mismos, solo es cuestion de encontrar el patron.
*-----------------------------------------------------------------*
*-----------------------------------------------------------------*

                                                                             ********************* 
                                                                             *********************
    TAB por ``Sergio Barrera´´.
            
Submit corrections

comments powered by Disqus
↑ Back to top | Santana Tabs for I Love You Much Too Much. Lyrics for acoustic guitar and electric guitar. 1 Tablatures and chords are parodies/interpretations of the original songs. You may use it for private study, scholarship, research or language learning purposes only