» » »

Santana, Flor D Luna Tabs (ver.2)

Artists:  A B C D E F G H I J K L M N O P Q R S T U V W X Y Z # 

Flor D Luna Tabs (ver.2)

Santana Tabs
 Rating:
4/5 (4 votes)
Flor D Luna lessons Tabs too difficult? Try these video lessons and learn fast
1
                "(1)
repeat these two riffs a few times
E-|------5-3----------------5-3-------------------------------------|
B-|-----5------6-5---------5-----6-5-3------------------------------|
G-|-----------------------------------------------------------------|
D-|-----------------------------------------------------------------|
A-|-----------------------------------------------------------------|
E-|-----------------------------------------------------------------|





E-|--------------------------------------------------------------|
B-|---3-5-6-5-3-5--1-3-5-3-1-3--0-1-3-1--------------------------|
G-|-------------------------------------1-2----------------------|
D-|--------------------------------------------------------------|
A-|--------------------------------------------------------------|
E-|--------------------------------------------------------------|
"            
Submit corrections

comments powered by Disqus
↑ Back to top | Santana Tabs for Flor D Luna. Lyrics for acoustic guitar and electric guitar. 1 Tablatures and chords are parodies/interpretations of the original songs. You may use it for private study, scholarship, research or language learning purposes only