» » »

Santana, Flor D Luna Bass tabs (ver.1)

Artists:  A B C D E F G H I J K L M N O P Q R S T U V W X Y Z # 

Flor D Luna Bass tabs (ver.1)

Santana Tabs
 Rating:
4/5 (4 votes)
Flor D Luna lessons Tabs too difficult? Try these video lessons and learn fast
1
                Any comments, questions, jokes, threats, corrections, thoughts or concerns, 

BPM: 123
Intro/Main Theme
  :Guitar:  Dm                  Am
G|--------||-------7-|---------|---------|---------|
D|--------||---7----7|---7-----|-------7-|-------7-|
A|--------||5--------|5------5\|---7----7|---7----7|
E|--------||---------|---------|5--------|5--------|
                                                             |(Go to gtr solo 2nd time)
  Dm                  Gm                  Dm        Am       |Dm
(Dm) Repeat:
G|-------7-|---------|---------|---------|-------7-|---------|-------7-|---------||
D|---7----7|---7-----|-------5-|-------5-|---7----7|-------7-|---7----7|---rest--||
A|5--------|5-----5-3|---5----5|---5----5|5--------|---7----7|5--------|5--------||
E|---------|---------|3--------|3--------|---------|5--------|---------|---------||

  Guitar= 0:48
   (Chorus) 
G|---------
D|---------
A|---------
E|---------

  Gm        C         F                   Am                  Dm
G|---7-----|-------5-|---5----5|---5-----|---------|---------|-------7-|-------7-||
D|5-----5-3|---5----5|3------3-|3---3-5-6|7-----7--|-------7-|---7----7|---7----7||
A|---------|3--------|---------|---------|---7----7|---7----7|5--------|5--------||
E|---------|---------|---------|---------|---------|5--------|---------|---------||

  Gm        C         F                   Am                  Dm
                                                              1:16 (Rpt.Intro)
G|---7-----|-------5-|---5----5|---5-----|---------|---------|-7-5-----------|---------||
D|5-----5-3|---5----5|3------3-|3----3---|7-----7--|-------7-|-----8-7-5-----|---rest--||
A|---------|3--------|---------|---------|---7----7|---7----7|5----------8-7-|5--------||
E|---------|---------|---------|---------|---------|5--------|---------------|---------||

Guitar solo: 1:40

G|-------------|-------------||
D|-----7-7-----|-----7-7-----||
A|(5)-------7-7|(7)-------7-7||
E|-------------|-------------||

 (Break): 2:49
G|--------------|--------------|--------------|---------||
D|--------------|--------------|--------------|---rest--||
A|5-5-5--------5|5-5-5--------5|5-5-5--------5|5--------||
E|------5-5-5-5-|------5-5-5-5-|------5-5-5-5-|---------||

  Guitar= 2:55
   (Chorus) 
G|---------
D|---------
A|---------
E|---------

Notes:
This is the Bassic idea of what the bass is doing in "Moon Flower". I feel that
all the basslines here are pretty straight-forward with the exception of the slight
change of notes during the Chorus and Guitar solo sections. Otherwise, I think it's 
dead on. I'm sure if you know the song you can figure out how to arrange the song.
This is a cool song for a beginner to learn this style of Bass playing. 
Remember, Confucius say; "Don't confuse a Beat with a Groove"
            
Submit corrections

comments powered by Disqus
↑ Back to top | Santana Bass for Flor D Luna. Lyrics for acoustic guitar and electric guitar. 1 Tablatures and chords are parodies/interpretations of the original songs. You may use it for private study, scholarship, research or language learning purposes only