>
 >
Do You Like The Way 1

Do You Like The Way 1 Guitar Tabs

Santana - Do You Like The Way 1 chords, tabs, tablatures, lyrics

Guitar lessons | Add/correct | Request | Top 50 tabs Artists:  A B C D E F G H I J K L M N O P Q R S T U V W X Y Z 0-9

Do You Like The Way 1 Guitar Tabs – Santana

CD, Sheet music, Poster

Do you like Do You Like The Way 1? Share with your friends now
TabsTabs v2
Do you like the Way by Santana, Cee Lo & Lauryn Hill


Tablature Explanation: 
h=hammer-on 
p=pull-off 
/=slide up or indicates rapid picking 
\=slide down 
b=bend  
^=bend full 
br, ^r=bend &release 
Jam key= B minor 

There's a bunch of lyrics between the intro and the solo that I  
didn't put in, and then a bunch more betwwen the solo and the outro, 
but the weren't neccesary 


Intro 
|------------------------------------------------- 
|------------------10-10-12-10h12----------------- 
|------9-9---9-9-9-----------------------/11-9---- 
|-9h11-------------------------------------------- 
|------------------------------------------------- 
|------------------------------------------------- 

-/7------------------------------------------------------7---------| 
----9-7-9-7h9p7-6------------------------6-6-6-7-7-7-7h9---7-------| 
---------------------7-------------7-7-7---------------------9-----| 
-------------------9---------9-9-9---------------------------------| 
                                                                             
Solo 
|------------------------------------------------------- 
|---------12------12-12-----12-12----12-12--12-15------- 
|-11--14------14^-------14^-------14^------------------- 
|------------------------------------------------------- 
|------------------------------------------------------- 
|------------------------------------------------------- 

-----------------------------------------14--17--14h17p14----14--------------- 
-----15-15-----15-15--15-15-15--17-15-17------------------17----17------------ 
-17^-------17^---------------------------------------------------------------- 

-----19----19-19-19-21-22-22^-22^-22^r--19-19--19-------------------------- 
--------19-----------------------------------22--22-19-22-19h22p19--19----- 
-20^--------------------------------------------------------------21--21^r- 

-------------------------------17------------------------------| 
-------------19--------------19--19-17^r----17----17-----------|            
-19----19-21----21^r-19------19----------19----19--------------| 
----21-------------------------------------------------16-19---| 

|-7--5--7--5--7--5-7-------------------- 
|-7--5--7--5--7--5-7------15-15-17------ 
|----------------------/16-------------- 
|--------------------------------------- 
|--------------------------------------- 
|--------------------------------------- 

|-7-------------------------------------------------------------------------- 
|----8--7--10-8-7------------------------------------------------------------ 
|-----------------9-7-9-7h9p7p6------------------9-9-11-12-12-12------------- 
|----------------------------------7---------/12----------------------------- 
|--------------------------------9------------------------------------------- 
|---------------------------------------------------------------------------- 

|------------------------------------------------- 
|-------15-15-15----15-15----15-15----15-15-15---- 
|-14h16----------16-------16-------16------------- 
|------------------------------------------------- 
|------------------------------------------------- 
|------------------------------------------------- 

------15-15----15-15----15--15----15--15-15----14-17-17-14-17-17-14-17--- 
-14h16------16-------16--------16---------------------------------------- 

------------------------------19-21-22--22^-22^-22^-22^---------| 
-19//////////20///22///--22^------------------------------------| 
-------------------------------------------------------end-solo-| 

|-7--5--7--5--7--5-7--------------------------------------------------------- 
|-7--5--7--5--7--5-7----/12-12----------------------------------------------- 
|--------------------------------------11--9------9-------------------------- 
|---------------------------------------------------12-11-12-11-------------- 
|-----------------------------------------------------------------9-12------- 
|---------------------------------------------------------------------------- 

-------------------------------------------------------| 
-------------------------------------------------------| 
-----9--9------9--9---9-9----9-9-9-11--9----9----------| 
-/11-------/11------11----11-------------12---12-------| 
-------------------------------------------------------| 
-------------------------------------------------------| 
                                                                            
... 
... 
... 
...can't we? 
|-7--5--7--5--7--5/7-7------------------14----------------------------------- 
|-7--5--7--5--7--5/7-7------15-------15-------17^-17p15-17-15-15---17-------- 
|------------------------16----16-------------------------------------------- 
|---------------------------------------------------------------------------- 
|---------------------------------------------------------------------------- 
|---------------------------------------------------------------------------- 
                                                                        
...goin' down baby 
--------------------------------------------------- 
-14-15-17--15h17p14-15-14-------------------------- 
--------------------------14-14-16-/16-14----16---- 
--------------------------------------------------- 
--------------------------------------------------- 
--------------------------------------------------- 
                                                                          
...Oh, Lord 
|--------------------------------------------------------------- 
|-12-----------12----------------------------------------------- 
|---/11--9--------11-9-11-/11----------------------------------- 
|------------------------------14-12----14-12-14-11------------- 
|-------------------------------------------------------12------ 
|----------------------------------------------------14--------- 

|------------------------------------------- 
|--------------------------------------15--- 
|-----------------------------14-14-16------ 
|-----14-14-14-14-14-14-14-14--------------- 
|-/14--------------------------------------- 
|------------------------------------------- 
                                                                         
...a minute  
|-------14--------------14------14-------14-------14-15-14-15-14-15-14-15- 
|----15--------------15------15-------15-------15------------------------- 
|-16--------------16---------------16-------16---------------------------- 
|------------------------------------------------------------------------- 
|------------------------------------------------------------------------- 
|------------------------------------------------------------------------- 

-14-15-17-17---14h17--14-17-14-17-14-17-14-17^-------17^-17^-17^-17^-17^-17^r- 
------------------------h--p--h--p--h--p--h----------------------------------- 

-14-17-17p14--14------------------------17-17p14--14-----------------------| 
------------17--17^-17-15-17-15-15--------------17--17^-17-15-17-14--------| 

-9-10-9----------9-10-9--------------------------------9-10---------12^-12---- 
--------10----10--------10----10-10h12-12--12--------------------------------- 
-----------11--------------11------------------------------------------------- 

----------------------------14-17----17h19-19--22-19-22-19-22-19-22-19-22^---- 
-------------------14-15-17----------------------p--h--p--h--p--h--p--h------- 
---14h16-14--14-16------------------------------------------------------------ 

-22--^22^-22^-22^-22^---22-19----19------------------------------------------- 
------------------------------22----22-19-22-22p19---19--------------------19- 
--------------------------------------------------21----21^-21-19----19-21---- 

-------------------------------| 
-22-22p19---19-----------------| 
---------21----21^-21-19-21----| 
-------------------------------| 
-------------------------------| 
-------------------------------| 

|-19--------------------------19----------------------------------------------- 
|----19-17h19-17-----------------19-17h19-17------17-----17-15-14-15-14-------- 
|------------------19------------------------19----------------------------14- 
|-----------------------------------------------------------------------16----- 
|------------------------------------------------------------------------------ 
|----------------------------------------------------------------inaudible-----





Comments


Popular Santana tabs & chords
Black Magic Woman Bass Tabs
Open Invitation Bass Tabs
Smooth Bass Tabs
I'm Feeling You Chords
Bella Tabs
Do You Like The Way Tabs
I'm Winning Tabs
Revelations 1 Tabs
Sant Putlightson Tabs
Sant Smooth Tabs


Song lyrics



↑ Back to top | Tablatures and chords are parodies/interpretations of the original songs. You may use it for private study, scholarship, research or language learning purposes only
© 2014 AZChords.com Contact us | Privacy policy | DMCA | Add/correct tabs | Request tabs | Top 50 tabs