» » »

Santana, CorazóN Espinado Tabs (ver.2)

Artists:  A B C D E F G H I J K L M N O P Q R S T U V W X Y Z # 

CorazóN Espinado Tabs (ver.2)

Santana Tabs
Rating:
0/5 (0 votes)
Hard to play? Try these video lessons and learn fast.
                Corazón Espinado by Santana & Maná


Tablature explanation: 
h = hammer on 
p = pull off 
^ = bend two semitones 
b = bend one semitone 
r = release bend 
/ = slide up 
\ = slide down 
//////// = turbo pick the preceding note 
jam key= B minor 

one of my favorites from supernatural. Musically, this song is  
very much like smooth. Its just two semitones higher. You can take  
licks and fill from this song and put them in smooth by lowering 
them the 2 frets, or vice versa. You can even exchange solos between  
the songs. try listening to both solos, the're very similar. 

Intro 
-|----------------------------7-6-----------------------------| 
-|--------------------------7------7--------------------------| 
-|-----4h7p4---4---------/7----------9--7-9^9^--------9-6-7-9-| 
-|-4h7-------7------------------------------------------------| 
-|------------------------------------------------------------| 
-|------------------------------------------------------------| 

-|------7h10p7----7------------14-17^r--14-----------14------14----14-- 
-|-7h10--------10----------/15-------------17--15-17^----17^----17^---- 
-|--------------------------------------------------------------------- 
-|--------------------------------------------------------------------- 
-|--------------------------------------------------------------------- 
-|--------------------------------------------------------------------- 

--------------------------------| 
--17-14-15-17---15-14-14--------| 
--------------------------16----| 
--------------------------------| 
--------------------------------| 
--------------------------------| 

Esa mujer me esta matando  
Me a espinado el corazon  
-|------------------------| 
-|-10----------7----------| 
-|-9^--9p7-9-7---7--------| 
-|-----------------9------| 
-|------------------------| 
-|------------------------| 

Por mas que trato de olvidarla  
Mi alma no da razon  
-|-------------------| 
-|-------------------| 
-|-6-7-9---9p7p6-----| 
-|--------------9----| 
-|-------------------| 
-|-------------------| 

Mi corazon aplastado  
-|-5-------------------------| 
-|---8-7-5---5----7p5h7------| 
-|---------7-----------------| 
-|---------------------------| 
-|---------------------------| 
-|---------------------------| 

Herido y abandonado  
Aber aber 
-|--------------| 
-|--------------| 
-|---4-6-7------| 
-|-4------------| 
-|--------------| 
-|--------------| 

tu sabes dime mi amor por favor  
Que dolor nos quedo  

Chorus: 
Ah ah ah corazon espinado  
Ah ah ah como me duele el amor  
-|-------------------------------------------------| 
-|-10^///////-10^///////-10^--10p7---7---7---------| 
-|---------------------------------9---9---9^------| 
-|-------------------------------------------------| 
-|-------------------------------------------------| 
-|-------------------------------------------------| 

Como duele como duele el corazon  
Cuando nostiene entregados  
-|--------------| 
-|--------------| 
-|-6-7-9--------| 
-|--------------| 
-|--------------| 
-|--------------| 

Pero no olvides mujer que algun dia diras  
Hay ya yay           como me duele el amor  
-|------------------------------------------| 
-|------------------------------------------| 
-|---7-7-7------------7---7-----------------| 
-|-9^---------------9^--9^--7-9p7-----------| 
-|-------------------------------9----------| 
-|------------------------------------------| 

Chorus: 
Ah ah ah corazon espinado  
Ah ah ah como me duele el amor  
-|--------------------------------7-----------------------| 
-|-10^-----10--7--10-7h10p7---7-----10p7-----7------------| 
-|--------------------------9---9^-------9p7---7----------| 
-|-----------------------------------------------9--------| 
-|----this is the best I could figure this one out...-----| 
-|--------------------------------------------------------| 

-|------------------------------------------------------ 
-|-----------------------17p15-17p15-17p15-17p15-17^---- 
-|-----7---6----7-6------------------------------------- 
-|-9----------------9-9--------------------------------- 
-|------------------------------------------------------ 
-|------------------------------------------------------ 
   ah  ah  ah...   

-12----12-12------------------------------------------| 
----17^------15-17p15------15--14----15-14------------| 
-----------------------16------------------16-16----\-| 
------------------------------------------------------| 
------------------------------------------------------| 
------------------------------------------------------| 
                       ah  ah  ah...                                            

-|-------------------------------2////////*-------| 
-|-------------------------------3////////*-------| 
-|------------------------------------------------| 
-|------------------------------------------------| 
-|-/9-9-9-----------------------------------------| 
-|------------------------------------------------| 
 *slide up while rapid picking                                                  

-|---------------------------------------------------------- 
-|-12----------------------------14br-12-----12//////------- 
-|---------14-11----11-11----------------14^----------14p11- 
-|---------------14^---------------------------------------- 
-|---------------------------------------------------------- 
-|---------------------------------------------------------- 
  solo                                                                         

---------------------| 
---------------------| 
---------------------| 
-14^-14---12h14------| 
---------------------| 
---------------------| 

-|----------------------------------------------------------14///////- 
-|-12-15-15-12-15-12-15-15-12---14-17-17-14-17-14-17-17-14------------ 
-|-------------------------------------------------------------------- 
-|-------------------------------------------------------------------- 
-|-------------------------------------------------------------------- 
-|-------------------------------------------------------------------- 


-14t15*----14-15-14-15-14-15-14-15-17-15-14-17^-| 
------------------------------------------------| 
------------------------------------------------| 
------------------------------------------------| 
------------------------------------------------| 
------------------------------------------------| 
 *trill about maybe 8 times. Listen to song to hear it.                      

-|-17^-----17-14----14-14---- 
-|---------------17^--------- 
-|--------------------------- 
-|--------------------------- 
-|--------------------------- 
-|--------------------------- 

-17^-17^-17^rp14--14-------------14---------------|     
----------------17--17b-17p15h17---15-17--15p14---|   
-----------------------------------------------16-| 
--------------------------------------------------| 
--------------------------------------------------| 
--------------------------------------------------|                             

-|---------------------------------------------------------------- 
-|-15p14p12-15p14p12-15p14p12-15p14p12-15p14p12-15p14p12-15p14p12- 
-|---------------------------------------------------------------- 
-|---------------------------------------------------------------- 
-|---------------------------------------------------------------- 
-|---------------------------------------------------------------- 

-------------------------------------------------------| 
-17p15p14-17p15p14-17p15p14-17p15p14-17p15p14-17p15p14-| 
-------------------------------------------------------| 
-------------------------------------------------------| 
-------------------------------------------------------| 
-------------------------------------------------------| 

-|-2////////////*--------------------------------------------| 
-|-3////////////*--------------------------------------------| 
-|-----------------------------------------------------------| 
-|-----------------------------------------------------------| 
-|-----------------------------------------------------------| 
-|-----------------------------------------------------------|                  
*turbo pick and slide all the way up the fretboard                              

Como me duele el olvido  
-|----------------------------------------| 
-|----------------------------------------| 
-|----------------------------------------| 
-|-14-12-11-----------11-11---------------| 
-|-----------14-12-14---------------------| 
-|----------------------------------------| 

Como duele el corazon  
-|---7-9---10-9-7----------------| 
-|-7----------------7------------| 
-|--------------------7----------| 
-|----------------------9-7------| 
-|-------------------------------| 
-|-------------------------------| 

Como me duele estar vivo  
-|---------------------------------------------------| 
-|---------------------------------------------------| 
-|----------------------11-12-12-11h12p11------------| 
-|-----11-14-14-11---14-------------------14--12-----| 
-|-/12------------12---------------------------------| 
-|---------------------------------------------------| 

Sin tenerte aun lado amor  
-|-----------------------------| 
-|-----------------------------| 
-|-----------------------------| 
-|-----------------------------| 
-|-/9-9-9-/9-9-9-/9-9-9--------| 
-|-----------------------------| 

Corazon espinado  
-|---------------------------------------------------------7------- 
-|-------------7-----------------------------------7--------------- 
-|-----7--9------7---------7--6----7-6--------/7-9---9---9^--9p7h9- 
-|-9---------------9-7-9---------------7---9----------------------- 
-|---------------------------------------9------------------------- 
-|----------------------------------------------------------------- 

----------------7----7----7-7-7-7-7-| 
-7--------------7----7----7-7-7-7-7-| 
--7--------7-9^---9^---9^-----------| 
---9p7h9----------------------------| 
------------------------------------| 
------------------------------------| 

-|---------------------12----------------------------------------- 
-|-17^------17-15-17^-----17^--12h15p12-12--15p12-12--15p12-12\--- 
-|---------------------------------------------------------------- 
-|---------------------------------------------------------------- 
-|---------------------------------------------------------------- 
-|---------------------------------------------------------------- 

---------------------------------14////////------------14- 
-14h17-17--14h17-17--14h17-17----15////////15-14-15-17---- 
---------------------------------------------------------- 
---------------------------------------------------------- 
---------------------------------------------------------- 
---------------------------------------------------------- 

-17p14-17p14-17p14-17^--17^-17^-17^-rp14--14----------------| 
----------------------------------------17--17^-17p15-------| 
------------------------------------------------------------| 
------------------------------------------------------------| 
------------------------------------------------------------| 
------------------------------------------------------------| 

-|---------------------------------------------------------------------- 
-|---------15--15-15-14----17-15-14-------------15--14-----15-14-------- 
-|-16/////--------------------------14----h16--------------------16-16-- 
-|-16/////-----------------------------16------------------------------- 
-|---------------------------------------------------------------------- 
-|---------------------------------------------------------------------- 

----------------------12--------------------------------------------| 
----------11----------------------11-----------------11-------------| 
----12-14----14----14^---14p12h14---12---------12-12----14----12h14-| 
-14-----------------------------------14----14----------------------| 

-|----7/////----9/////----10/////----12//-14-14----14----14----14----- 
-|-10^-------12^-------13^--------15^-----------17^---17^---17^---17^- 
-|-------------------------------------------------------------------- 
-|-------------------------------------------------------------------- 
-|-------------------------------------------------------------------- 
-|-------------------------------------------------------------------- 

-14-15^-----------14---------------------------------------------| 
--------17-15-17^---15------15-------15-------14h17-17-14h17-17--| 
----------------------16-16----16-16----16-16--------------------| 
            

comments powered by Disqus
↑ Back to top | Santana Tabs for CorazóN Espinado. Lyrics for acoustic guitar and electric guitar. Tablatures and chords are parodies/interpretations of the original songs. You may use it for private study, scholarship, research or language learning purposes only