>
 >
Africa Bamba 1

Africa Bamba 1 Guitar Tabs

Santana - Africa Bamba 1 chords, tabs, tablatures, lyrics

Guitar lessons | Add/correct | Request | Top 50 tabs Artists:  A B C D E F G H I J K L M N O P Q R S T U V W X Y Z 0-9

Africa Bamba 1 Guitar Tabs – Santana

CD, Sheet music, Poster

Do you like Africa Bamba 1? Share with your friends now
TabsTabs v2
Africa Bamba by Santana


Tablature Explanation: 
h=hammer-on 
p=pull-off 
/=slide up or indicates picking 
\=slide down 
b=bend half  
^=bend full 
br, ^r=bend &release 
Jam key= A minor 

Intro 
Classical Guitar  
|---------------------------------------------------------------------| 
|------------------------10----------------------------------------10-| 
|----------7h9-7-9-----9----9-9-7-9-7-----9p7---------7----------9----| 
|---7h9h10------------------------------------10-10-9---9-10----------| 
|-7-------------------------------------------------------------------| 
|---------------------------------------------------------------------| 

|------------------------------------------------------------------ 
|---8-------------------8-------------------10-10-9-9-------------- 
|-9---10-9-7----9-----9---10-9-7---/9-7---------------10--9--7--7-- 
|------------10------------------10-------------------------------- 
|------------------------------------------------------------------ 
|------------------------------------------------------------------ 

--------------------------| 
--------------------------| 
--------------7-----------| 
-10-10-10--9----10--9--7--| 
--------------------------| 
--------------------------| 
                                                                               
Electric Guitar 
-|-------------------------------------10-10-------------------- 
-|-12br-10-10-----12br--10-12-13-12-13-------13----13-12-12-10-- 
-|-------------------------------------------------------------- 
-|-------------------------------------------------------------- 
-|-------------------------------------------------------------- 
-|-------------------------------------------------------------- 

--8---------------------| 
-----10-----------------| 
---------9p7----7h9-9---| 
-------------10---------| 
------------------------| 
------------------------| 

-|----------------------------10--10--12--12br-13-12-13-15-13-12-13- 
-|--10-10-10--12--12--13--13---------------------------------------- 
-|-9---------------------------------------------------------------- 
-|------------------------------------------------------------------ 
-|------------------------------------------------------------------ 
-|------------------------------------------------------------------ 

-12h13p12---12------------------------------------------| 
---------15----15-15-13-12-13---------------------------| 
------------------------------14-14-14-14---------------| 
------------------------------------------14-12-14------| 
--------------------------------------------------------| 
--------------------------------------------------------| 
                                                                               
Classical Guitar 
...portugueza  
-|--7-8-7---------------| 
-|-10-----10-9----------| 
-|-9-----------10-9-7---| 
-|----------------------| 
-|----------------------| 
-|arp-------------------| 

...portugueza  
-|---------------------------------------| 
-|-10-12-13--10--13-10-12-13-10-12-13----| 
-|---------------------------------------| 
-|---------------------------------------| 
-|---------------------------------------| 
-|---------------------------------------| 

...portugueza  
-|-12///////13-12----12----12-----------------------------------------| 
-|----------------15----15----15-13-15--13-13-12-15-13-12-13----------| 
-|-----------------------------------------------------------14-14----| 
-|--------------------------------------------------------------------| 
-|--------------------------------------------------------------------| 
-|--------------------------------------------------------------------| 

... 
... 
...                                                                             
  
...feliz 
-|----8-8-7------------------| 
-|--10------10---------------| 
-|-9-----------9-7----9-7----| 
-|-----------------10--------| 
-|---------------------------| 
-|---------------------------| 

...feliz 
-|-------------------------------------| 
-|-12br-10-10--------------------------| 
-|------------12-10-9------------------| 
-|--------------------12-10-12^r-------| 
-|-------------------------------------| 
-|-------------------------------------| 

...feliz 
-|----------------------------------12h13-13p12---12------------------| 
-|-------------------------12h13h15------------15----15-15-13--15-----| 
-|----------------------14--------------------------------------------| 
-|-------------12h14h15-----------------------------------------------| 
-|----12h14h15--------------------------------------------------------| 
-|-12-----------------------------------------------------------------| 

...feliz 
-|-------12--------12-------12-------12------| 
-|----13-------13--------13-------13---------| 
-|-14-----------------14-------14------------| 
-|-------------------------------------------| 
-|-------------------------------------------| 
-|-------------------------------------------| 

Classical Guitar                                                                
               
...portugueza  
-|---------------------------------| 
-|-10-12-12-12--12h13-13/15-15-----| 
-|---------------------------------| 
-|---------------------------------| 
-|---------------------------------| 
-|---------------------------------| 

...portugueza  
-|-12-12------------------| 
-|--------13--------------| 
-|-----------14-----------| 
-|--------------14--------| 
-|-----------------15-----| 
-|------------------------| 

...portugueza  
-|-------------------------------| 
-|-12-12-12-12-9-----------------| 
-|----------------10-9-----9-----| 
-|---------------------12--------| 
-|-------------------------------| 
-|-------------------------------| 

... 
... 
... 
...esta danza (Electric) 
-|-----------------------| 
-|-10-8------------------| 
-|-----/9-7----7h9p7-----| 
-|----------10-----------| 
-|-----------------------| 
-|-----------------------| 

...cancion  
-|----------------------------------12h13-------| 
-|-------------------------12h13h15-------------| 
-|----------------------14----------------------| 
-|-------------12h14h15-------------------------| 
-|----12h14h15----------------------------------| 
-|-12-------------------------------------------| 

...tristeza 
-|-12-12-12-12-13-12----12----------12--------| 
-|-------------------15----15-13-15----15-----| 
-|--------------------------------------------| 
-|--------------------------------------------| 
-|--------------------------------------------| 
-|--------------------------------------------| 

...encontrar  
-|--------------------------| 
-|-12br-10-10----10---------| 
-|------------12----12^-----| 
-|--------------------------| 
-|--------------------------| 
-|--------------------------| 

...feliz  
-|----------------------------------| 
-|----------------------------------| 
-|----14-----14---------------------| 
-|-/14----/14----14--12----12^r-----| 
-|----------------------15----------| 
-|----------------------------------| 

...feliz  
-|-7h8-8-8--7--7-------------------------| 
-|----------------10--10-----------------| 
-|------------------------/9--/9--7------| 
-|---------------------------------------| 
-|---------------------------------------| 
-|---------------------------------------| 

...feliz  
-|-5---8-5h8p5-------------------| 
-|---5---------8-5---5-----------| 
-|----------------/7---7-5-7^r---| 
-|-------------------------------| 
-|-------------------------------| 
-|-------------------------------| 

...feliz  
-|-------12-12--------12-12-13-12-15-12-----| 
-|----13-----------13-----------------------| 
-|-14-----------14--------------------------| 
-|------------------------------------------| 
-|------------------------------------------| 
-|------------------------------------------| 

Solo 
-|------7-8-7-------------------------------------------| 
-|---10--------10--8------------------------8-10--------| 
-|-9------------------10--9-7h9-------9-10-------9-7----| 
-|------------------------------------------------------| 
-|------------------------------------------------------| 
-|------------------------------------------------------| 

-|--------------------------------------------------------------------| 
-|-------------------------------------------------------------10-----| 
-|----7--------------------------------------------7--7--9--9---------| 
-|-10---10-9-10--7-7-----------7-7-----7-9--7-9-10--------------------| 
-|-------------------7\5---5h7------10--------------------------------| 
-|-----------------------8--------------------------------------------| 

-|--------------------------------------------------------------------------| 
-|---------------------------------------------------12-12-12-13-13-13-15---| 
-|----14---14-14-----14---14-14------14-14--14-14-14------------------------| 
-|-12^---^--------12^---^--------12^----------------------------------------| 
-|--------------------------------------------------------------------------| 
-|--------------------------------------------------------------------------| 

-|-12-12----12----12-----12---12- 
-|-------15^---15^---15^---15^--- 
-|------------------------------- 
-|------------------------------- 
-|------------------------------- 
-|-------------------------------                                               

----13-15-17-12h13p12--12--------------------------------------------- 
-17------------------15--15--13-15--13-13-12-13----------------------- 
------------------------------------------------14-14--14-14-14-14-14- 

-|-----12-12-12------12-12-12------12--12-12------------------------- 
-|---13------------13------------13-----------5////6////7////8////--- 
-|-14------------14------------14------------------------------------ 
-|------------------------------------------------------------------- 
-|------------------------------------------------------------------- 
-|------------------------------------------------------------------- 

-|-------------------------17-20p19p17-20p19p17-20p19p17-20p19p17-20p19p17---- 
-|-10wah10wah10wa10wa10wa----------------------------------------------------- 
-|---------------------------------------------------------------------------- 
-|---------------------------------------------------------------------------- 
-|---------------------------------------------------------------------------- 
-|---------------------------------------------------------------------------- 

-20p19p17-20^--20^r-17h20p17--17----------------------------------| 
----------------------------20---20-17-20-20p17--17---------------| 
-----------------------------------------------19--19^r17---------| 
---------------------------------------------------------19-------| 
now the song changes and there isnt really any guitar worth tabbing out.





Comments


Popular Santana tabs & chords
Into The Night Chords
Put Your Lights On Chords
Black Magic Woman Tabs
Black Magic Women Tabs
Europa 2 Tabs
Flor D Luna 1 Tabs
Samba Pa Ti Tabs
Samba Pa Ti 1 Tabs
Soul Sacrifice Tabs
Wishing It Was 1 Tabs


Song lyrics



↑ Back to top | Tablatures and chords are parodies/interpretations of the original songs. You may use it for private study, scholarship, research or language learning purposes only
© 2014 AZChords.com Contact us | Privacy policy | DMCA | Add/correct tabs | Request tabs | Top 50 tabs