» » »

Youre My Everything Tabs (ver.2)

Artists:  A B C D E F G H I J K L M N O P Q R S T U V W X Y Z # 

Youre My Everything Tabs (ver.2)

Santa Esmeralda
Rating:
3/5 (2 votes)

Tabs too difficult? Try these video lessons and learn fast.
                Guitar solo midway through the song:

e|-----------------10-10-8--8-6-6-5--5-3-5-----------|
B|-8-10-11--3-3-------------------------------3-3----|
G|---------------------------------------------------|
D|---------------------------------------------------|
A|---------------------------------------------------|
E|---------------------------------------------------|

e|--8-8-6--6-5-5-3--3-1-3--5-6-3-5-3-1---------------|
B|---------------------------------------1-1-3-------|
G|---------------------------------------------------|
D|---------------------------------------------------|
A|---------------------------------------------------|
E|---------------------------------------------------|

...You're my everything I live up on the land that see the sky above....
            
Tabs too difficult? Try these video lessons and learn fast.


comments powered by Disqus
↑ Back to top | Tablatures and chords are parodies/interpretations of the original songs. You may use it for private study, scholarship, research or language learning purposes only