» » »

Walang Kadala-dala Bass tabs (ver.1)

Artists:  A B C D E F G H I J K L M N O P Q R S T U V W X Y Z # 

Walang Kadala-dala Bass tabs (ver.1)

Sandwich
Rating:
0/5 (0 votes)

Tabs too difficult? Try these video lessons and learn fast.
                ----------------------------------------------------------------------------
			     SONG NAME - Band Name
----------------------------------------------------------------------------


Tuning: standard

intro:
        G               D       E
G|------------------------------------------|  -
D|------------------------------------------|  4
A|---------------------5-5--x-8-7-5-7-------|  x
E|--3-3--x-5-3-2-3--0-----------------------|  -

verse: (kapareho lng xa ng intro.....)
        G               D       E
G|------------------------------------------|  -
D|------------------------------------------|  3
A|---------------------5-5--x-8-7-5-7-------|  x
E|--3-3--x-5-3-2-3--0-----------------------|  -

(tapos ung pang apat sisingitan ng ganito....)

G|--------------------------------------------|  
D|--------------------------------------------|  
A|---------------------55555555-5/7-777777/---|  
E|--3-3--x-5-3-2-3--0-------------------------|  

chorus: (i2 ung pnaka gsto kong part....)
       G      A          F
G|--------------------------------------------------------------| -
D|--------------------------------------------------------------| 3
A|--------------------------------------------------------------| x
E|--3-3-3-3-5-5-5-5--5/13-13-13-12-12-10-10-8-8-7-7-5-5-3-3-1---| -

G|-------------------------|
D|-------------------------|
A|-------------------------|
E|--3-3-3-3-5-5-5-5-1~~----|

(intro)
(verse)
(chorus)

adlib:

G|---------------------------------------------| -
D|---------------------------------------------| 4
A|---------------------------------------------| x
E|--3-3-x-3-3-3--3/13-13-13-x-13-13-13-13/15---| -

G|--------------------------------------------------|
D|--------------------------------------------------|
A|--------------------------------------------------|
E|--3-3-3-3-3-3-3-3-3-3-3-3-3-3-3--3/13-13-13-13----|

G|-----------------------------------------------|
D|-----------------------------------------------|
A|-----------------------------------------------|
E|--13-13-13-13-13-13-13-13-13-13-13-13-13\------|

(chorus)
(end)

| /  slide up
| \  slide down
| ~  vibrato
| x  Mute note

hehe..
un lng poh..
ung ibng prt poh nian pkirmdam q mali..
hehe..
qng mai violent reaction nman pnta kau s skul..
D.N.H.S.(main)room.3 ssc buildling sa dasmarinas cavite....hehe..
sa lhat ng taga main..mabuhay tau!!!!

=============================================================================
            
Tabs too difficult? Try these video lessons and learn fast.




comments powered by Disqus
↑ Back to top | Tablatures and chords are parodies/interpretations of the original songs. You may use it for private study, scholarship, research or language learning purposes only