>
 >
Two Trick Pony 4

Two Trick Pony 4 Guitar Tabs

Sandwich - Two Trick Pony 4 chords, tabs, tablatures, lyrics

Guitar lessons | Add/correct | Request | Top 50 tabs Artists:  A B C D E F G H I J K L M N O P Q R S T U V W X Y Z 0-9

Two Trick Pony 4 Guitar Tabs – Sandwich

CD, Sheet music, Poster

Do you like Two Trick Pony 4? Share with your friends now
Bass TabsTabsTabs v2Tabs v3Tabs v4Tabs v5Tabs v6
Band Name: Sandwhich
Track: 2 Trick Pony
Tuning: EADGBe (Standard)

This is my first tab I hope U like it
I did my best to help, the only thing ask from you is to rate this tab.


/  = slide
h  = hammer on
p  = pull off
TR = tremello picking
*  = natural harmonics
x  = dead string
PM = palm mute
b  = bend
~  = let ring

Intro

Gtr. 1
E|--------------------|
B|--------------------|
G|--------------------|
D|--------------------|
A|--4-----4-4---4-----|
E|----5-5-----5---3-5-|x7
PM................

E|----------------|
B|----------------|
G|----------------|
D|----------------|
A|--4-----4-4-----|
E|----5-5---------|(This the 8th time)
PM................

Gtr. 2 (with a higher volume)
Gtr. 2 enters after Gtr. 1 plays the intro 4x
Gtr. 2 enters w/ a pickscrape

E|--------------------|
B|--------------------|
G|--------------------|
D|--------------------|
A|---4-----4-4--4-----|
E|\----5-5-----5--3-5-|3x

E|----------------|
B|----------------|
G|----------------|
D|----------------|
A|--4-----4-4-----|
E|----5-5---------|(this is the 4th time)

Verse

Gtr. 1

 
Gtr. 1
E|--------------------|
B|--------------------|
G|--------------------|
D|--------------------|
A|--4-----4-4---4-----|
E|----5-5-----5---3-5-|x8
PM.....................
I want ................

Gtr. 2 (no PM, higher volume) 
E|----------------|
B|----------------|
G|----------------|
D|----------------|
A|--4-----4-4-----|
E|----5-5-----3-5-|x8

Chorus:

Gtr. 1

E|----------------| 
B|----------------| 
G|--7-7-7-7-7-7-7-| 
D|--7-7-7-7-7-7-7-| 
A|--5-5-5-5-5-5-5-|
E|----------------| 
    
Gtr. 2

E|--------0--|
B|------3-3--|
G|----2---2--|
D|--0--------|
A|-----------|
E|-----------|

Gtr. 1
E|--------------------|--------------------|
B|--------------------|--------------------|
G|--------------------|--------------------|
D|--------------------|--------------------|
A|--4-----4-4---4-----|--4-----4-4---4-----|
E|----5-5-----5---3-5-|----5-5-----5---3-5-|

Gtr. 1			
E|----------------| 
B|----------------| 
G|--7-7-7-7-7-7-7-| 
D|--7-7-7-7-7-7-7-| 
A|--5-5-5-5-5-5-5-|
E|----------------| 
    
Gtr. 2

E|--------0--|
B|------3-3--|
G|----2---2--|
D|--0--------|
A|-----------|
E|-----------|

Gtr. 1
E|--------------------|--------------------|
B|--------------------|--------------------|
G|--------------------|--------------------|
D|--------------------|--------------------|
A|--4-----4-4---4-----|--4-----4-4---4-----|
E|----5-5-----5---3-5-|----5-5-----5---3-5-|


Gtr. 1			
 
E|----------------| 
B|----------------| 
G|--7-7-7-7-7-7-7-| 
D|--7-7-7-7-7-7-7-| 
A|--5-5-5-5-5-5-5-|
E|----------------| 
    
Gtr. 2

e|-------0--|
B|-----3-3--|
G|---2---2--|
D|-0--------|
A|----------|
E|----------|

Gtr. 1

e|--------------------------------------------|
B|--------------------------------------------|
G|--12-12-12-12-12-12-12-12-12-12-12-12-12-12-|
D|--12-12-12-12-12-12-12-12-12-12-12-12-12-12-|
A|--10-10-10-10-10-10-10-10-10-10-10-10-10-10-|
E|--------------------------------------------|

Gtr. 1
E|--------------------|
B|--------------------|
G|--------------------|
D|--------------------|
A|--4-----4-4---4-----|
E|----5-5-----5---3-5-|3x


Gtr. 1&2
E|----------------|
B|----------------|
G|----------------|
D|----------------|
A|--4-----4-4-----|
E|----5-5---------|This is the 4th time


Bridge

Gtr. 1

E|-------------|
B|-------------|
G|-------------|                                     
D|-------------|				    
A|--4---4---5b-|
E|----5---5----|8x (Lower volume on 5th to 8th)

Gtr. 2

E|---9----9---10b----------|
B|-----10---8--------------|
G|-------------------------|
D|-------------------------|
A|-------------------------|
E|-------------------------|4x

Gtr. 1
E|----------------|
B|----------------|
G|----------------|
D|----------------|
A|--4-----4-4-----|
E|----5-5-----3-5-| 4x


3rd Verse No Guitars (Guitar cooldown for 4 measures (on main riff))

Gtr. 1

E|----------------|
B|----------------|
G|----------------|
D|----------------|
A|----------------|
E|--3h5--3h5--3h5-|4x (Lower volume on 3rd and 4th)
PM................. 

Gtr.2 

E|--5-|
B|--x-|
G|--2-|
D|----|
A|----|
E|----|
   TR

3rd Chorus (Same as the 1st chorus)

Outro

Gtr. 1

E|-------------|
B|-------------|
G|-------------|                                     
D|-------------|				    
A|--4---4---5b-|
E|----5---5----|17x (Lower volume on 5th to 17th)

Gtr. 2

E|---9----9---10b~---------|
B|-----10---8--------------|
G|-------------------------|
D|-------------------------|
A|-------------------------|
E|-------------------------|13x (enters after guitar 1 plays the 4th time)

Guitar sequence:

Intro
Chorus
Intro
Chorus
Bridge
3rd Verse
chorus
Outro





Comments


Popular Sandwich tabs & chords
Masilungan Chords
Photocopy 2 Chords
Sakyan Chords
Betamax Tabs
For Your Consideration Tabs
Greenpick Tabs
Procastinator Tabs
Two Trick Pony (Intro) Tabs
Two Trick Pony 2 Tabs
Butterfly Carnival Ukulele


Song lyrics



↑ Back to top | Tablatures and chords are parodies/interpretations of the original songs. You may use it for private study, scholarship, research or language learning purposes only
© 2014 AZChords.com Contact us | Privacy policy | DMCA | Add/correct tabs | Request tabs | Top 50 tabs