» » »

Sandwich, Sunburn Tabs (ver.1)

Artists:  A B C D E F G H I J K L M N O P Q R S T U V W X Y Z # 

Sunburn Tabs (ver.1)

Sandwich Tabs
 Rating:
4/5 (4 votes)
Sunburn lessons Tabs too difficult? Try these video lessons and learn fast
                Album:Five on the Floor

x - muted note
. - palm mute
/ - slide up
\ - slide down
b - bend
* - harmonics

= just listen to the song for timings and muting pattern

INTRO

gtr 1
e|-------------------------------|
B|-------------------------------|
G|-------------------------------|
D|---7---7---7---7---7---7---7---|
A|--7---7---7---7---7---7----7---|
E|-------------------------------|
    ...........................
gtr 2 enters
e|---------------------------------|
B|---------------------------------|
G|-----6--6666---6666---6666--6666-|
D|--xxx7-x7777-xx7777-xx7777-x7777-|
A|--xxx7-x7777-xx7777-xx7777-x7777-|
E|--xxx5-x5555-xx5555-xx5555-x5555-|

VERSE 1

gtr 1 & 2 here she comes....
e|---------------------------------|
B|---------------------------------|
G|-----6--6666---6666---6666--6666-|
D|--xxx7-x7777-xx7777-xx7777-x7777-|
A|--xxx7-x7777-xx7777-xx7777-x7777-|
E|--xxx5-x5555-xx5555-xx5555-x5555-|

PRECHORUS (REPEAT AS MANY TIMES)

gtr 1 & 2 i just wanna be..
e|-------------------------|
B|-------------------------|
G|--7777777777777777777777-|
D|--xxxxxxxxxxxxxxxxxxxxxx-|
A|--5555555555555555555555-|
E|-------------------------|

VERSE 2 SAME AS VERSE 1
THEN PRECHORUS
BRIDGE

gtr 1 & 2 LETS ROLL...

e|--------------------|
B|--------------------|
G|--------------------|
D|--77777777777777777-|
A|--77777777777777777-|
E|--55555555555555555-|
    .................

THEN

gtr 1                              gtr 2
e|----------------------------     ---------|
B|-12b-12b-12b-12b-12b-12b-12b     ---------|
G|----------------------------     --3*-----| LISTEN WHERE IT WILL ENTER
D|----------------------------     ---------|
A|----------------------------     ---------|
E|----------------------------     ---------|

SUNBURN!

e|--------------------|
B|--------------------|
G|--------------------|
D|--7-5---------------|
A|--7-5---------------|
E|--5-3---------------|

REPEAT VERSE THEN PRECHORUS

~END ~
            
Submit corrections

comments powered by Disqus
↑ Back to top | Sandwich Tabs for Sunburn. Lyrics for acoustic guitar and electric guitar. Tablatures and chords are parodies/interpretations of the original songs. You may use it for private study, scholarship, research or language learning purposes only