» » »

Sandwich, Sugod Tabs (ver.4)

Artists:  A B C D E F G H I J K L M N O P Q R S T U V W X Y Z # 

Sugod Tabs (ver.4)

Sandwich Tabs
 Rating:
4.2/5 (5 votes)
Sugod lessons Tabs too difficult? Try these video lessons and learn fast
                Sandwich

*pakinggan nyo na lang po 'yung song para sa timing.

Intro:

g|------|
d|------|
a|------|
e|-3s10-|

Refrain & Chorus:

g|---------------------------------|
d|---------------------------------|
a|-5-5-5-5-5-5-5-5-----------------|
e|-----------------2-2-2-2-3-3-3-3-|


Verse:

g|-------------------------------|
d|-----3-3-----------------------|
a|-5-5-----0-0-mute-3-3-mute-1-1-|
e|-------------------------------|
            
Submit corrections

comments powered by Disqus
↑ Back to top | Sandwich Tabs for Sugod. Lyrics for acoustic guitar and electric guitar. Tablatures and chords are parodies/interpretations of the original songs. You may use it for private study, scholarship, research or language learning purposes only