» » »

Selos Tabs (ver.1)

Artists:  A B C D E F G H I J K L M N O P Q R S T U V W X Y Z # 

Selos Tabs (ver.1)

Sandwich
Rating:
5/5 (3 votes)

Hard to play? Try these video lessons and learn fast.
                


Gtr. Legends:
 / \- slide
 h - hammer on
 ~ - let it ring
 p - pull off
 v - vibrato





Standard Tuning


Intro:

Guitar 1:
e|------------------------------------|
B|------------------------------------|
G|------------------------------------| 2x
D|------------------------------------|
A|--9--7--9--12---9--7--9-------------|
E|--7--5--7--10---7--5--7--10h12p10---|


Guitar 2:
e|-------------------------------------|
B|----------7-----10-----7-------------|
G|------7-9---9-7----9-7---9-7---------| 4x
D|--7h9------------------------9p7-----|
A|-------------------------------------|
E|-------------------------------------|


(Keyboard trans. to guitar)
e|--15-14------------------15-14----17-15-14-12~--|
B|--------15-17--14-12~----------15---------------|
G|------------------------------------------------|
D|------------------------------------------------|
A|------------------------------------------------|
E|------------------------------------------------|

e|--15-14-----------------12-15-14~---|
B|--------15-17--12~---15-------------|
G|------------------------------------|
D|------------------------------------|
A|------------------------------------|
E|------------------------------------|






Verse: "Magaspang man ang kalabit papansin...."

Guitar 1:
e|------------------------------------|
B|------------------------------------|
G|------------------------------------| 2x
D|------------------------------------|
A|--9--7--9--12---9--7--9-------------|
E|--7--5--7--10---7--5--7--10h12p10---|


Guitar 2:
e|-------------------------------------|
B|----------7-----10-----7-------------|
G|------7-9---9-7----9-7---9-7---------| 4x
D|--7h9------------------------9p7-----|
A|-------------------------------------|
E|-------------------------------------|




Instrumental:

Guitar 2:                                        Gtr.1 riff 
e|-----------------------55-5-----------------|--14\10~~--|
B|---77-7----------------77-7-77-7-77-7-55----|-----------|
G|--------77-7-99-9-66--------77-7-99-9-66----|-----------|
D|--------------------------------------------|-----------|
A|--------------------------------------------|-----------|
E|--------------------------------------------|-----------|




Repeat verse


Chorus:   "Selos........."

Guitar 1:
e|------------------------------------------|
B|------------------------------------------|
G|--44444444-------------------77777777-----|
D|--44444444-77777777-55555555-77777777-----|
A|--22222222-77777777-55555555-55555555-----|
E|-----------55555555-33333333--------------|

Guitar 2:
e|---------------|
B|-------7-------|
G|-------7p6-----| Repeat this riff many times
D|--7h9----------|
A|---------------|
E|---------------|





Pre-Verse:
    Gtr.1          Gtr.2
e|-----------|------------------------|
B|---7v~-----|--77-7------------------|
G|---7v~-----|-------77-7-99-9-66-----|
D|-----------|------------------------|
A|-----------|------------------------|
E|-----------|------------------------|





Verse:

Guitar 1:
e|------------------------------------|
B|------------------------------------|
G|------------------------------------| 2x
D|------------------------------------|
A|--9--7--9--12---9--7--9-------------|
E|--7--5--7--10---7--5--7--10h12p10---|


Guitar 2:
e|-------------------------------------|
B|----------7-----10-----7-------------|
G|------7-9---9-7----9-7---9-7---------| 4x
D|--7h9------------------------9p7-----|
A|-------------------------------------|
E|-------------------------------------|





Chorus 2:   "Selos........."

Guitar 1:
e|------------------------------------------|
B|------------------------------------------|
G|--44444444-------------------77777777-----| Repeat the chorus 4x
D|--44444444-77777777-55555555-77777777-----|
A|--22222222-77777777-55555555-55555555-----|
E|-----------55555555-33333333--------------|

Guitar 2:
e|---------------|
B|-------7-------|
G|-------7p6-----| Repeat this riff many times
D|--7h9----------|
A|---------------|
E|---------------|






Bridge/Outro:

Acoustic guitar 1:
e|-------------|
B|------7------|
G|------7p6----|repeat this many times until the song fades
D|--7h9--------| 
A|-------------|
E|-------------|


Acoustic guitar 2:
e|---------------------------|
B|--10\3-3/7-10\5-5/7--------|
G|---------------------------| repeat til the song fades
D|---------------------------|
A|---------------------------|
E|---------------------------|


Harmonica trans. guitar:
e|---10~~-14-12-9~--10-5~-7-3p2~----------|
B|----------------------------------------|
G|----------------------------------------| 2x
D|----------------------------------------|
A|----------------------------------------|
E|----------------------------------------|


End



Selos Lyrics:

Magaspang man ang kalabit papansin
Hinayaan ko lang
Pati bato tinumba ng hangin

Nagpapatalo sa laro
Nagpapatalo sa inyo
Ngunit parati nalang galit
Walang gamot sa ganyang sakit

Ambigat ng yong dala
Hindi ako ang may sala

Tinalikuran pa nga noon
Hindi masabi ang kailangan
Ano pa man ang nasa isip

Hindi tumigil ang mundo
Lalo na para sa iyo
Wag maghanap ng kapalit
Walang gamot sa ganyang sakit
            
Hard to play? Try these video lessons and learn fast. | Correct




comments powered by Disqus
↑ Back to top | Tablatures and chords are parodies/interpretations of the original songs. You may use it for private study, scholarship, research or language learning purposes only