» » »

Sandwich, Resbak Tabs (ver.1)

Artists:  A B C D E F G H I J K L M N O P Q R S T U V W X Y Z # 

Resbak Tabs (ver.1)

Sandwich Tabs
 Rating:
4/5 (4 votes)
Resbak lessons Tabs too difficult? Try these video lessons and learn fast
1
                resbak by sandwich

pasenxa na firstym ko lng po to.mejo magulo..kaya nio yan!n_n
intro


e|----------------------------------------------------------|
B|----------------------------------------------------------|
G|------101010-9-7--101010-9-12--141414-12-10--121212-10-9--|2x
D|------101010-9-7--101010-9-12--141414-12-10--121212-10-9--|
A|------888-7-5--888-7-10--121212-10-8-101010-8-7-----------|
E|----------------------------------------------------------|

e|------------------------------------------|
B|------------------------------------------|
G|------10-9-10-9-10-9-10-9-10-9-10-9-10-9--|
D|------x-x-x-x-x-x-x-x-x-x-x-x-x-x---------|
A|------8-7-8-7-8-7-8-7-8-7-8-7-8-7---------|
E|------------------------------------------|

verse
e|--------------------------------------------------------------------------------------------------|
B|--------------------------------------------------------------------------------------------------|
G|------7----101010-9-7-----101010-9-5-----101010-9-5-----101010-9-7-----101010-9-7-----101010-9-5--|
D|------x----xxx-x-x-----xxx-x-x-----xxx-x-x-----xxx-x-x-----xxx-x-x-----xxx-x-x--------------------|
A|------5----888-7-5-----888-7-3-----888-7-3-----888-7-5-----888-7-5-----888-7-3--------------------|
E|--------------------------------------------------------------------------------------------------|

chorus:
e|----------------------------------------------------------|
B|----------------------------------------------------------|
G|------101010-9-7--101010-9-12--141414-12-10--121212-10-9--|4x
D|------101010-9-7--101010-9-12--141414-12-10--121212-10-9--|
A|------888-7-5--888-7-10--121212-10-8-101010-8-7-----------|
E|----------------------------------------------------------|

e|------------------------------------------|
B|------------------------------------------|
G|------10-9-10-9-10-9-10-9-10-9-10-9-10-9--|
D|------x-x-x-x-x-x-x-x-x-x-x-x-x-x---------|
A|------8-7-8-7-8-7-8-7-8-7-8-7-8-7---------|
E|------------------------------------------|

verse 2=pareho lng ng verse1

chorus=mahaba yan

tapos outro ito:
e|-------------------------------------------------|
B|-------------------------------------------------|
G|------10-9-10-9-10-9-10-9-10-9-10-9-10-9------7--|
D|------x-x-x-x-x-x-x-x-x-x-x-x-x-x------x---------|
A|------8-7-8-7-8-7-8-7-8-7-8-7-8-7------5---------|
E|-------------------------------------------------|

un n un..magulo ba?hehe..
kaya nio yan!!!hehe..

kung may mali,email nio nlang ako..
pa-rate naman..hehe..
            
Submit corrections

comments powered by Disqus
↑ Back to top | Sandwich Tabs for Resbak. Lyrics for acoustic guitar and electric guitar. 1 Tablatures and chords are parodies/interpretations of the original songs. You may use it for private study, scholarship, research or language learning purposes only