>
 >
Nahuhulog 2

Nahuhulog 2 Guitar Tabs

Sandwich - Nahuhulog 2 chords, tabs, tablatures, lyrics

Guitar lessons | Add/correct | Request | Top 50 tabs Artists:  A B C D E F G H I J K L M N O P Q R S T U V W X Y Z 0-9

Nahuhulog 2 Guitar Tabs – Sandwich

CD, Sheet music, Poster

Do you like Nahuhulog 2? Share with your friends now
Bass TabsTabsTabs v2Tabs v3
band/artist: Sandwich
Song title: Nahuhulog

standard tuning (EADGBe)

Notation Legend:

/    = slide up
\    = slide down
h    = hammer-on
p    = pull-off 
b    = bend
~    = vibrato
P.M. = palm mute

intro:

e|--------------9-9h10p9---------------|   
B|---------8-10----------10-8h10p8-----|       
G|-------6-------------------------6---|  (2x)
D|-6/7-7-------------------------------|
A|-------------------------------------|             
E|-------------------------------------|   

1st stanza

kapit,nakakalula na.....wala nang masabitan...
lapit,nakapagtataka......wala nang makapitan...

e|----------------------------------------|
B|----------------------------------------|
G|----------------------------------------|
D|--7-7-7-7-7--5-5-5-5--4-4-4-4h5-5-5-5/7-|
A|----------------------------------------|
E|----------------------------------------|

Chorus;
  
ako ay nahuhulog....ako ay nahuhulog!!!...sa 'yo...

e|---------------------|   
B|-----------1------2--|       
G|-----3-3--3-------2--| (2x)
D|-2-3-3-3-3----2-3-0--|    
A|-2-3-1-1------2-3----|                            
E|---1------------1----|

  
e|--------------9-9h10p9---------------|   
B|---------8-10----------10-8h10p8-----|       
G|-------6-------------------------6---|  (2x)
D|-6/7-7-------------------------------|
A|-------------------------------------|             
E|-------------------------------------| 

2nd stanza

kapit,lumalayo ka ba...hindi ko namasabi...
hapit,tumutulin yata...baka anong mangyari...

e|----------------------------------------|
B|----------------------------------------|
G|----------------------------------------|
D|--7-7-7-7-7--5-5-5-5--4-4-4-4h5-5-5-5/7-|
A|----------------------------------------|
E|----------------------------------------|

CHORUS!!!

ad lib

1:35
e|-------------------------------------------------------------------------|
B|-5p4--5p4--5p4--5p4-5p4--5p4--5p4--5p4--5p7--5p4--5p4--5p4--5p4--5p4-5p4-|
G|----4----4----4----4---4----4----4----4----4----4----4----4----4----4---4|
D|-------------------------------------------------------------------------|
A|-------------------------------------------------------------------------|
E|-------------------------------------------------------------------------|


e|-------------------------------------------------------------------------|
B|-5p4--5p4--5p4--5p4-5p4--5p4--5p4--5p4--5p4--5p4--5p4--5p4--5p4---7~-----|
G|----4----4----4----4---4----4----4----4----4----4----4----4----4---------|
D|-------------------------------------------------------------------------|
A|-------------------------------------------------------------------------|
E|-------------------------------------------------------------------------|

1:54

Unti-unting bumibilis...Mga kamay namamawis
Nauubusan ng lakas...Paano kaya maliligtas 

e|-----------------|
B|-4---------------|
G|-----4\1--/4-----| (4x)
D|-----------------|
A|-----------------|
E|-----------------|

2:14     P.M.

 Guitar 1
e|-----------------------------------------------------------------------|
B|-5-4--5-4--5-4--5-4--5-4--5-4--7-4--5-4--5-4--5-4--5-4--5-4--5-4--7-4--|
G|----4----4----4----4----4----4----4----4----4----4----4----4----4----4-| 
D|-----------------------------------------------------------------------|
A|-----------------------------------------------------------------------|
E|-----------------------------------------------------------------------|

e|-----------------------------------------------------------------------|
B|-5-4--5-4--5-4--5-4--5-4--5-4--7-4--5-4--5-4--5-4--5-4--5-4--5-4--7-4--|
G|----4----4----4----4----4----4----4----4----4----4----4----4----4----4-| 
D|-----------------------------------------------------------------------|
A|-----------------------------------------------------------------------|
E|-----------------------------------------------------------------------|
                            
                          2:15
                            Guitar 2
e|-------------|          e|-----------------|
B|-5-4--5-4----|          B|-5-4-----5-4--7--|
G|----4----4---|          G|-----4-----------|  (2x)
D|-------------|          D|-------6---------|
A|-------------|          A|-----------------|
E|-------------|          E|-----------------|



e|--------------------------------------------------------|
B|4-4-4-4-4-4-4--5-5-5-5-5-5-5--7-7-7-7-7-7-7-7-7-7-7-7---|
G|--------------------------------------------------------|  (10x)
D|--------------------------------------------------------|
A|--------------------------------------------------------|
E|--------------------------------------------------------|

e|------------|
B|------------|
G|-----2------|
D|-2-3-2------| 
A|-2-3-0------|
E|---1--------|


Hi nga pla sa buong barkada cna junell, jeric, rey an, alfred, jepo, rodeleo, erick, at
sa utol kong c james tan!!!! \m/!!!





Comments


Popular Sandwich tabs & chords
Betamax Bass Tabs
Procrastinator Bass Tabs
Butterfly Carnival Chords
Fluxxe Chords
Sometimes Chords
Butterfly Carnival 1 Tabs
In Case Of Fire Tabs
Resbak Tabs
Two Trick Pony (Intro) Tabs
Putik Ukulele


Song lyrics



↑ Back to top | Tablatures and chords are parodies/interpretations of the original songs. You may use it for private study, scholarship, research or language learning purposes only
© 2014 AZChords.com Contact us | Privacy policy | DMCA | Add/correct tabs | Request tabs | Top 50 tabs