>
 >
Nahuhulog 1

Nahuhulog 1 Guitar Tabs

Sandwich - Nahuhulog 1 chords, tabs, tablatures, lyrics

Guitar lessons | Add/correct | Request | Top 50 tabs Artists:  A B C D E F G H I J K L M N O P Q R S T U V W X Y Z 0-9

Nahuhulog 1 Guitar Tabs – Sandwich

CD, Sheet music, Poster

Do you like Nahuhulog 1? Share with your friends now
Bass TabsTabsTabs v2Tabs v3
INTRO

  -----------------------------|-----------------------------------------------|
B -------------------------14--|-14-(14B)--(14RB)------------------------------|
A -------------12----14--------|---------------------14----12-(12B)-(12RB)-----| Repeat
R -------11--------------------|-------------------------------------------11--| Twice
1 -10/12-----------------------|-----------------------------------------------|
  -----------------------------|-----------------------------------------------|

STANZA 1

  ------------------------------------------------------------------|
B ------------------------------------------------------------------|
A --12/-14--14--14--14--12--12--12--12/-11--11--11--11/-12--12--12--|
R ------------------------------------------------------------------|
2 --10/-12--12--12--12--10--10--10--10/-9---9---9---9/--10--10--10--|
  ------------------------------------------------------------------|

    Kapit,
	nakakalula na
    Wala nang
masabitan
    Lapit,
 nakapagtataka
    Wala nang
	makapitan


CHORUS (DO BAR 3 AND BAR 4 TWICE)


  -------------------------------------------------|
B -------------------------------------------------|
A -------------------------5--5--5--5--5--5--5--5--|
R -4--4--4--4--5--5--5--5--3--3--3--3--3--3--3--3--|
3 -2--2--2--2--3--3--3--3--1--1--1--1--1--1--1--1--|
  -0--0--0--0--1--1--1--1--------------------------|

                                    Ako ay nahuhulog


  -------------------------------------------------|
B -------------------------------------------------|
A -------------------------4--4--4--4--4--4--4--4--|
R -4--4--4--4--5--5--5--5--2--2--2--2--2--2--2--2--|
4 -2--2--2--2--3--3--3--3--0--0--0--0--0--0--0--0--|
  -0--0--0--0--1--1--1--1--------------------------|

                                    Ako ay nahuhulog (sa 'yo)

DO INTRO

STANZA 2 (DO BAR 2)
Kapit, lumalayo ka ba
Hindi ko na masabi
Hapit, tumutulin yata
Baka ano mangyari

DO CHORUS

AD LIB

  ---------------------------------|
B ---------------------------------|
A -9-8---9-8---9-8---9-8---9-8---8-|
R -----9-----9-----9-----9-----9---|
5 ---------------------------------|
  ---------------------------------|


  ---------------------------------|--------------------------------|
B -----7-----------7---------------|--------------------------------|
A -8-9---8-9-9-8-9---8-9-9-8-9-9-9-|8-9-9-8-9-9-8-9-9-8-9-9-8-9-9---|
R ---------------------------------|------------------------------9-|
6 ---------------------------------|--------------------------------|
  ---------------------------------|--------------------------------|


  ---------------------------------|--------------------------------|
B ---------------------------------|--------------------------------|
A -9-8---9-8---118---9-8---9-8-----|9-8---9-8---9-8---9-8---9-8-118-|
R -----9-----9-----9-----9-----9-9-|----9-----9-----9-----9---------|
7 ---------------------------------|--------------------------------|
  ---------------------------------|--------------------------------|


  ---------------------------------|--------------------------------|
B ---------------------------------|--------------------------------|
A ---9-8---9-8---9-8---9-8---9-8---|9-8---9-8---9-8---9-8---9-8---8-|
R -9-----9-----9-----9-----9-----9-|----9-----9-----9-----9-----9---|
8 ---------------------------------|--------------------------------|
  ---------------------------------|--------------------------------|

BRIDGE

  ---------------------------------|--------------------------------|
B ---------------------------------|--------------------------------|
A -11~~~~~~~~~~~~~~~~~~~~~~~~~~~~~/|8~~~~~~~~~~~~~~/4~~~~~~~~~~~~~~/|
R ---------------------------------|--------------------------------|
9 ---------------------------------|--------------------------------|
  ---------------------------------|--------------------------------|

                            Unti-unting      bumibilis


  ---------------------------------|-----------------------------------|
B  ---------------------------------|----------------------------------|
A  -1~~~~~~~~~~~~~~~~~~~~~~~~~~~~~~/|8~~~~~~~~~~~~~~/4~~~~~~~~~~~~~~/|
R  ---------------------------------|--------------------------------|
10 ---------------------------------|--------------------------------|
   ---------------------------------|--------------------------------|

                                               Mga kamay
namamawis
                                                Nauubusan ng
 lakas
                                               Paano kaya maliligtas


Bars 11-14 are Muted Notes

   ---------------------------------|
B  ---------------------------------|
A  -9-8---9-8---9-8---9-8---9-8---9-|
R  -----9-----9-----9-----9-----9---|
11 ---------------------------------|
   ---------------------------------|
Unti

   ---------------------------------|--------------------------------|
B  ---------------------------------|--------------------------------|
A  -8---9-8---9-8---118---9-8---9-8-|--9-8---9-8---9-8---9-8---9-8---|
R  ---9-----9-----9-----9-----9-----|9-----9-----9-----9-----9-----9-|
12 ---------------------------------|--------------------------------|
   ---------------------------------|--------------------------------|
 unting   bumibilis            Mga kamay

   ---------------------------------|--------------------------------|
B  ---------------------------------|--------------------------------|
A  -9-8---118---9-8---9-8---9-8---9-|8---9-8---9-8---118---9-8---9-8-|
R  -----9-----9-----9-----9-----9---|--9-----9-----9-----9-----9-----|
13 ---------------------------------|--------------------------------|
   ---------------------------------|--------------------------------|
namamawis                        Nauubusan ng

   ---------------------------------|--------------------------------|
B  ---------------------------------|--------------------------------|
A  ---9-8---9-8---9-8---9-8---9-8---|9-8---118---9-8---9-8---9-8---8-|
R  -9-----9-----9-----9-----9-----9-|----9-----9-----9-----9-----9---|
14 ---------------------------------|--------------------------------|
   ---------------------------------|--------------------------------|

  lakas                       Paano kaya

   ---------------------------------|
B  ---------------------------------|
A  -8-9-9-8-9-9-8-9-9-8-9-9-8-9-9-9-|
R  ---------------------------------|
15 ---------------------------------|
   ---------------------------------|

maliligtas

    ---------------------------------|-------------------------------------------------|
 B  ---------------------------------|-------------------------------------------------|
 A  -8-8-8-8-8-8-8-8-9-9-9-9-9-9-9-9-|-11-11-11-11-11-11-11-11-11-11-11-11-11-11-11-11-|
 R  ---------------------------------|-------------------------------------------------|
 16 -6-6-6-6-6-6-6-6-7-7-7-7-7-7-7-7-|-9--9--9--9--9--9--9--9--9--9--9--9--9--9--9--9--|
    ---------------------------------|-------------------------------------------------|

	          Unti-unting       bumibilis                                          Mga
   kamay                         namamawis
     Nauubusan                   ng lakas
     Paano         kaya          maliligtas


ENDING

|-------------------|
|-------------------|
|-------------2-----|
|---2----3----2-----|
|---2----3----0-----|
|---0----1----------|





Comments


Popular Sandwich tabs & chords
Dvdx Bass Tabs
Selos Bass Tabs
Sugod Bass Tabs
Two Trick Pony Live Bass Tabs
Akoy Isang Pinoy Chords
Sakyan Chords
Slowly Chords
Sunburn Chords
Procrastinator 1 Tabs
Photocopy Ukulele


Song lyrics



↑ Back to top | Tablatures and chords are parodies/interpretations of the original songs. You may use it for private study, scholarship, research or language learning purposes only
© 2014 AZChords.com Contact us | Privacy policy | DMCA | Add/correct tabs | Request tabs | Top 50 tabs