» » »

Sandwich, Dvdx Tabs (ver.2)

Artists:  A B C D E F G H I J K L M N O P Q R S T U V W X Y Z # 

Dvdx Tabs (ver.2)

Sandwich Tabs
 Rating:
4/5 (4 votes)
Dvdx lessons Tabs too difficult? Try these video lessons and learn fast
                
 hehehe first time ko lang p0 d2 gumawa ng tab kc sa tignin ko mali yung mg tab nila sa
kya gawa aq ng sken hehehehe....kung may comment kau send nyo na lang sa e-mail q ha?

Legend:
\ slide to right
/ slide to left
* palm mute
intro:

e|--------------------------------|guitar 1
B|--------------------------------|
G|-------------99-----------------|
D|--66\99\1111-99-----------------|
A|--66\99\1111-77-----------------|
E|--44\77\9 9 --------------------|

e|--------------------------------|guitar 1
B|--------------------------------|
G|-------------999----------------|
D|--66\99\1111-999----------------|
A|--66\99\1111-777----------------|
E|--44\77\9 9 --------------------|

Verse:palm mute na d2 sa verse


e|--------------------------------|guitar 1
B|--------------------------------|
G|-------------99-----------------|
D|--66\99\1111-99-----------------|
A|--66\99\1111-77-----------------|
E|--44\77\9 9 --------------------|
    *************
e|--------------------------------|guitar 1
B|--------------------------------|
G|-------------999----------------|
D|--66\99\1111-999----------------|
A|--66\99\1111-777----------------|
E|--44\77\9 9 --------------------|
    *************


pre chorus: lahat ng hinahanap mo lahat ay nandito...........

e|--------------------------------|guitar 1
B|--------------------------------|
G|--------------------------------|
D|--------------------------------|4x lang po
A|----7-6---9--7-6----------------|
E|--5-----7--------7--------------|


e|--------------------------------|guitar 1
B|--------------------------------|
G|--------------------------------|
D|--------------------------------|4x lang po
A|----5-4---7--5-4----------------|
E|--3-----5--------5--------------|


dvd mam  dvd sir   dvd dvd......
e|--------------------------------|
B|--------------------------------|
G|--9999-9999------9999999--------|
D|--9999-9999------9999999--------|guitar 1
A|--7777-7777------7777777--------|
E|--------------------------------|

e|--------------------------------|guitar 1
B|--------------------------------|
G|-------------99-----------------|
D|--66\99\1111-99-----------------|
A|--66\99\1111-77-----------------|
E|--44\77\9 9 --------------------|
                                    2 beses gagawin ito pag-tapos ng chorus
e|--------------------------------|guitar 1
B|--------------------------------|
G|-------------999----------------|
D|--66\99\1111-999----------------|
A|--66\99\1111-777----------------|
E|--44\77\9 9 --------------------|

2nd verse na dito palm mute ulit...hehehe


e|--------------------------------|guitar 1
B|--------------------------------|
G|-------------99-----------------|
D|--66\99\1111-99-----------------|
A|--66\99\1111-77-----------------|
E|--44\77\9 9 --------------------|

e|--------------------------------|guitar 1
B|--------------------------------|
G|-------------999----------------|
D|--66\99\1111-999----------------|
A|--66\99\1111-777----------------|
E|--44\77\9 9 --------------------|

pre chorus: lahat ng hinahanap mo lahat ay nandito...........

e|--------------------------------|guitar 1
B|--------------------------------|
G|--------------------------------|
D|--------------------------------|4x lang po
A|----7-6---9--7-6----------------|
E|--5-----7--------7--------------|


e|--------------------------------|guitar 1
B|--------------------------------|
G|--------------------------------|
D|--------------------------------|4x lang po
A|----5-4---7--5-4----------------|
E|--3-----5--------5--------------|


dvd mam  dvd sir   dvd dvd......
e|--------------------------------|
B|--------------------------------|
G|--9999-9999------9999999--------|
D|--9999-9999------9999999--------|guitar 1
A|--7777-7777------7777777--------|
E|--------------------------------|


e2 na po ung katapusan, kung may kulang pa sa tab ko visit may
mag-send na lang kau ng comment nyo...salamat.....

note add me s frndstr..hehehe
binabati ko nga sila martin,tj,louie, pti ung mga tambay sa plaza quezon at mga cls8 ko
4th year pati lahat lahat ng mga tropa ko dyn sa Las Piñas..san magustuhan nyo ung tab
thank you ulit....

DVDX by: Sandwich
            
Submit corrections

comments powered by Disqus
↑ Back to top | Sandwich Tabs for Dvdx. Lyrics for acoustic guitar and electric guitar. Tablatures and chords are parodies/interpretations of the original songs. You may use it for private study, scholarship, research or language learning purposes only