» » »

Sandwich, Dvdx Bass tabs (ver.1)

Artists:  A B C D E F G H I J K L M N O P Q R S T U V W X Y Z # 

Dvdx Bass tabs (ver.1)

Sandwich Tabs
 Rating:
4.3/5 (6 votes)
Dvdx lessons Tabs too difficult? Try these video lessons and learn fast
                this one is for my angel
DVDX

intro:
lead guitar with drums

then intro with bass
verse na din ito
G|---------------------------------------------------------------------------|
D|---------------------------------------------------------------------------|
A|-------------------------------------6p5-----------------------------------|
E|---33--66--55--11--------33--66--88----------------------------------------|



Chorus
"lahat ng hinahanap mo lahat ay nandito"

G|---------------------------------------------------------------------------|
D|---------------------------------------------------------------------------|
A|-----7-6----7h9-7--6----------7--6----7h9--7--6----------------------------|
E|---5-----7-----------7-----5-------7---------------------------------------|

twice yan... 

tpos ung higher na
"lahat ng hinahanap mo lahay ay nandito"

G|---------------------------------------------------------------------------|
D|---------------------------------------------------------------------------|
A|-----5-4----5h7-5--4----------5-4-----5h7-5--4-----------------------------|
E|---3-----5-----------5-----3-------5---------------------------------------|


Then
"DVD ma'm DVD sir!!! DVDVDVDVD X!!!"

G|----~~----~~~----~~--------------------------------------------------------|
D|---------------------------------------------------------------------------|
A|---------------------------------------------------------------------------|
E|-----33333----33333----3333333333------------------------------------------|

tansyahin nyo n lng =D hehe

pero un na yan!! 
paulit ulit lng
            
Submit corrections

comments powered by Disqus
↑ Back to top | Sandwich Bass for Dvdx. Lyrics for acoustic guitar and electric guitar. Tablatures and chords are parodies/interpretations of the original songs. You may use it for private study, scholarship, research or language learning purposes only