» » »

Sandwich, Dvdx Tabs (ver.1)

Artists:  A B C D E F G H I J K L M N O P Q R S T U V W X Y Z # 

Dvdx Tabs (ver.1)

Sandwich Tabs
Rating:
5/5 (8 votes)
Dvdx lessons Tabs too difficult? Try these video lessons and learn fast
                Album:five on the floor

x - muted note
. - palm mute
\ - slide down
/ - slide up

Standard Tuning

INTRO

gtr 1 do this with slide or muting       gtr 2
e|-------------------------------------- -------------------------|
B|-------------------------------------- -------------------------|
G|-------------------------------------- --7777777777777777777777-|
D|--55/88/77\33/55/88/1010/13\12-------- --xxxxxxxxxxxxxxxxxxxxxx-|
A|--55/88/77\33/55/88/1010/13\12-------- --5555555555555555555555-|
E|--33/66/55\11/33/66/-8-8/11\10-------- -------------------------|


verse: 

gtr 1                                    gtr 2
e|-------------------------------------- -------------------------|
B|-------------------------------------- -------------------------|
G|-------------------------------------- --7777777777777777777777-|
D|--55-88-77-33-55-88-1010-13-12-------- --xxxxxxxxxxxxxxxxxxxxxx-|
A|--55-88-77-33-55-88-1010-13-12-------- --5555555555555555555555-|
E|--33-66-55-11-33-66--8-8-11-10-------- -------------------------|
    ............................


pre chorus: lahat ng hinahanap mo ay lahat ay nandito......

gtr 1 about 4x                                      gtr 2 about 4x 
e|---------------------------------------------     -----------------|
b|---------------------------------------------     ----6-7-6---6h7-6|
g|---------------------------------------------     --5-------5------|
d|---------------------------------------------     -----------------|
a|----7-6----9-7-6-------7--6----9-7-6---------     -----------------|
e|--5-----5---------7--5-------5--------7------     -----------------|

gtr 1 about 4x                                      gtr 2 about 4x
e|---------------------------------------------     -----------------|
b|---------------------------------------------     ----7-8-7---7h8-7|
g|---------------------------------------------     --6-------6------|
d|---------------------------------------------     -----------------|
a|----5-4----7-5-3--------5-4-----7-5-3--------     -----------------|
e|--3-----3---------5--3-------3---------5-----     -----------------|


chorus: dvd mam dvd sir dvd dvd dvdx.....

 gtr 1 & gtr 2
e|--------------------|
b|--------------------|
g|--------------------|
d|-5555-5555-55555555-|    
a|-5555-5555-55555555-|
e|-3333-3333-33333333-|

DO INTRO RIFF

VERSE 2 

gtr 1                                    gtr 2
e|-------------------------------------- --3-----3----------|
B|-------------------------------------- ----5-5----5-5-3-5-|
G|-------------------------------------- -------------------|
D|--55-88-77-33-55-88-1010-13\12-------- -------------------|
A|--55-88-77-33-55-88-1010-13\12-------- -------------------|
E|--33-66-55-11-33-66--8-8-11\10-------- -------------------|
    ...........................

REPEAT PRE-CHORUS
THEN CHORUS

BRIDGE 

 
gtr 1                          gtr 2
e|------------------           --3-5-3-55-3-5----|
b|------------------           --3-5-3-55-3-5----|
g|------------------           ------------------|
d|-5-5-555555555555-           ------------------|
a|-5-5-555555555555-           ------------------|
e|-3-3-333333333333-           ------------------|

NEXT

gtr 1                                    gtr 2
e|-------------------------------------- -------------------------------|
B|-------------------------------------- ----9---9-----9---9---9-----9--|
G|-------------------------------------- --7---7---7-7---7---7---7-7----|
D|--55-88-77-33-55-88-1010-13-12-------- -------------------------------|
A|--55-88-77-33-55-88-1010-13-12-------- -------------------------------|
E|--33-66-55-11-33-66--8-8-11-10-------- -------------------------------|
    ............................         ...............................

LAST PART

  gtr 1 & 2
e|----------------------------|
b|----------------------------|
g|----------------------------|
d|--55-x-88-x-1010-x-12-12----|
a|--55-x-88-x-1010-x-12-12----|
e|--33-x-66-x-8-8x-x-10-10----| 

PRECHORUS
CHORUS

~END
            

comments powered by Disqus
↑ Back to top | Sandwich Tabs for Dvdx. Lyrics for acoustic guitar and electric guitar. Tablatures and chords are parodies/interpretations of the original songs. You may use it for private study, scholarship, research or language learning purposes only