» » »

Bakit Ang Babae Tabs (ver.3)

Artists:  A B C D E F G H I J K L M N O P Q R S T U V W X Y Z # 

Bakit Ang Babae Tabs (ver.3)

Sandwich
Rating:
0/5 (0 votes)

Hard to play? Try these video lessons and learn fast.
                Band: Sandwich
Tribute to: APO hiking Society


Intro:
Gtr I
e|----------------|-------------|----------------|-------------|
B|----------15----|----------15-|----------15----|----------15-|
G|----14-------14-|----14-------|----14-------14-|----14-------|
D|-12----12-------|-12----12----|-12----12-------|-12----12----|
A|----------------|-------------|----------------|-------------|
D|----------------|-------------|----------------|-------------|

Bass
G|------------(2x)-|------------(2x)-|
D|-----------------|-----------------|
A|-55555555-7/9999-|-----------------|
E|-----------------|-55555555-7/9999-|


Verse I:
Gtr I
e|-------------------------------------------|
B|-15-15-15-15-15-15-15-14-14-14-14-14-14-14-|
G|-14-14-14-14-14-14-14-14-14-14-14-14-14-14-|
D|-------------------------------------------|
A|-------------------------------------------|
D|-------------------------------------------|

Gtr II
e|-------------------------------------------------------------------------|
B|----15----15----15----14----14----14----17----17----17----15----15----15-|
G|-14----14----14----14----14----14----14----14----14----14----14----14----|
D|-------------------------------------------------------------------------|
A|-------------------------------------------------------------------------|
E|-------------------------------------------------------------------------|



Chorus:
D
Bakit ang babae 
   C#m
Sa tagal ng pagsasama
     Bm               A-B,E-D
Tila mas mahirap maintindihan
D
Parang sang problema na
   C#m
Sa una kayang-kaya
        Bm                Esus
Ngunit humihirap na sa tagalan
(Sa tagalan ay lumulubha)


Repeat Verse I and Chorus


Solo: D-A-D-A
      G-D/F#-Bm-C

e|-----------------------|
B|-----------------------|
G|-7-9-11-12b------------|
D|------------7-9-11-12b-|
A|-----------------------|
D|-----------------------|


Repeat Chorus


Outro:
Gtr I
e|----------------|-------------|----------------|-------------|
B|----------15----|----------15-|----------15----|----------15-|
G|----14-------14-|----14-------|----14-------14-|----14-------|
D|-12----12-------|-12----12----|-12----12-------|-12----12----|
A|----------------|-------------|----------------|-------------|
D|----------------|-------------|----------------|-------------|

Bass
G|------------(2x)-|------------(2x)-|
D|-----------------|-----------------|
A|-55555555-7/9999-|-----------------|
E|-----------------|-55555555-7/9999-|
            
Hard to play? Try these video lessons and learn fast. | Correct




comments powered by Disqus
↑ Back to top | Tablatures and chords are parodies/interpretations of the original songs. You may use it for private study, scholarship, research or language learning purposes only