» » »

Bakit Ang Babae Bass tabs (ver.1)

Artists:  A B C D E F G H I J K L M N O P Q R S T U V W X Y Z # 

Bakit Ang Babae Bass tabs (ver.1)

Sandwich
Rating:
0/5 (0 votes)

Hard to play? Try these video lessons and learn fast.
                Band: Sandwich
Tribute to: APO hiking Society


Intro:
G|------------(2x)-|------------(2x)-|
D|-----------------|-----------------|
A|-55555555-7/9999-|-----------------|
E|-----------------|-55555555-7/9999-|

Verse I:
G|----------------------------------|
D|----------------------------------|
A|---------7777777-/9999999-7777777-|
E|-5555555--------------------------|

G|----------------------------------|
D|----------------------------------|
A|-5555555-4444444-\2222222-/7-x-7x-|
E|----------------------------------|

G|----------------------------------|
D|----------------------------------|
A|---------7777777-/9999999-7777777-|
E|-5555555--------------------------|

G|----------------------------------|
D|----------------------------------|
A|-5555555-4444444-\2222222-/7-x-7x-|
E|----------------------------------|


Chorus:
G|-----------------------------------------|-----------|
D|-----------------------------------------|-----------|
A|-5555555555555-444444444444-222222222222-|-----7-x-5-|
E|-----------------------------------------|-5-7-------|

G|----------------------------------------------------------|
D|----------------------------------------------------------|
A|-555-555-555-555-444-444-444-444-222-222-222-/777-777-777-|
E|----------------------------------------------------------|


Repeat Verse,Chorus,Intro and Chorus


Outro:
G|------------(2x)-|------------(2x)-|
D|-----------------|-----------------|
A|-55555555-7/9999-|-----------------|
E|-----------------|-55555555-7/9999-|
            
Hard to play? Try these video lessons and learn fast. | Correct




comments powered by Disqus
↑ Back to top | Tablatures and chords are parodies/interpretations of the original songs. You may use it for private study, scholarship, research or language learning purposes only