» » »

Sandra Nasic, Maria Magdalena Bass tabs (ver.1)

Artists:  A B C D E F G H I J K L M N O P Q R S T U V W X Y Z # 

Maria Magdalena Bass tabs (ver.1)

Sandra Nasic Tabs
 Rating:
4/5 (4 votes)
Maria Magdalena lessons Tabs too difficult? Try these video lessons and learn fast
1
                Sandra - Maria Magdalena - by GM

Intro
                          x2
G|---------------------------|
D|---------------------------|
A|---------------------------|
E|---7--5--3-2-0-----7--5--3-|

Couplet                                         Couplet Break
G|---------------------------------------------|-------------------------------------|
D|------------------------4------4-------------|------------------------4------------|
A|---------------5-5--------47--4--47-74-------|---------------5-5--------47--4------|
E|7--7-7---567--5---7-5-7----------------7-5-7-|7--7-7---567--5---7-5-7--------2--2--|

Descente
G|---------------------------------------------------------------|
D|------------------------------------------------5--55--54------|
A|5--55--54--44--4----------------5--55--54--44--4---------------|
E|----------------7--77--75--55-57-------------------------------|

Refrain
                x2
G|----------------|-------------------------------|
D|------4---------|----------7--------------------|
A|7--77--7----5---|5-55--7-----4-4-5-55--7-------5|
E|--------7--7-757|-------5-5---7---------5-57-57-|

Break
G|-----------------|
D|-----------------|
A|-----------------|
E|7--77----7---77--|
            
Submit corrections

comments powered by Disqus
↑ Back to top | Sandra Nasic Bass for Maria Magdalena. Lyrics for acoustic guitar and electric guitar. 1 Tablatures and chords are parodies/interpretations of the original songs. You may use it for private study, scholarship, research or language learning purposes only