» » »

Sandbox, Curious Tabs (ver.1)

Artists:  A B C D E F G H I J K L M N O P Q R S T U V W X Y Z # 

Curious Tabs (ver.1)

Sandbox Tabs
 Rating:
4.2/5 (5 votes)
Curious lessons Tabs too difficult? Try these video lessons and learn fast
1
                Standard Tuning


Intro:

  E

-----------------------------------------------------------------------------|
-----------------------------------------------------------------------------|
--9-9-9-9-9-------7h9--------------------------------------------------------|
--9-9-9-9-9----7h9-----------------------------------------------------------|
--7-7-7-7-7------------------------------------------------------------------|
-----------------------------------------------------------------------------|x4

Verse:

  C#                A              E

-----------------------------------------------------------------------------|
-----------------------------------------------------------------------------|
-----------------------------------9-9-9-9-9---------------------------------|
--11-11-11-11-11-----7-7-7-7-7-----9-9-9-9-9---------------------------------|
--11-11-11-11-11-----7-7-7-7-7-----7-7-7-7-7---------------------------------|
---9--9--9--9--9-----5-5-5-5-5-----------------------------------------------|

 Just before going into the course, instead of playing the E play B
-----------------------------------------------------------------------------|
-----------------------------------------------------------------------------|
-----------------------------------------------------------------------------|
----9-9-9-9------------------------------------------------------------------|
----9-9-9-9------------------------------------------------------------------|
----7-7-7-7------------------------------------------------------------------|


      F#              A               E

-----------------------------------------------------------------------------|
-----------------------------------------------------------------------------|
---------------------------------------9-9-9---------------------------------|
-------4-4-4----------7-7-7------------9-9-9---------------------------------|
-------4-4-4----------7-7-7------------7-7-7---------------------------------|
-------2-2-2----------5-5-5--------------------------------------------------|

And I wonder where you are , im curous .. etc.

After course play E then go back into the Verse


 Solo: played over verse


-----------------------------------------------------------------------------|
----------------------------------------------------------7----7----7----7---|
--8--9---9-------------------8--9----------------8--9--9---------------------|
------------9--9-9-9-7-------------9-9-9-9-------------------9----9----9---9-|
-----------------------9--7----------------9--7------------------------------|
-----------------------------------------------------------------------------|

-----------------------------------------------------------------------------|
--7--9---7-7-7-9-------------------------------------------------------------|
-----------------9-----------------------------------------------------------|
-----------------------------------------------------------------------------|
-----------------------------------------------------------------------------|
-----------------------------------------------------------------------------|
 Back into E then Verse

Outro:  Repeat E
------------------------------------------------------------------------------------|
------------------------------------------------------------------------------------|
-------9-9-9-9-9-9------------------------------------------------------------------|
-------9-9-9-9-9-9------------------------------------------------------------------|
-------7-7-7-7-7-7------------------------------------------------------------------|
------------------------------------------------------------------------------------|
            
Submit corrections

comments powered by Disqus
↑ Back to top | Sandbox Tabs for Curious. Lyrics for acoustic guitar and electric guitar. 1 Tablatures and chords are parodies/interpretations of the original songs. You may use it for private study, scholarship, research or language learning purposes only