» » »

Sanctus Real, We Need Each Other Tabs (ver.1)

Artists:  A B C D E F G H I J K L M N O P Q R S T U V W X Y Z # 

We Need Each Other Tabs (ver.1)

Sanctus Real Tabs
 Rating:
4/5 (4 votes)
We Need Each Other lessons Tabs too difficult? Try these video lessons and learn fast
                (C) 2008 Sparrow Records


My first tab ever, so I'm open to any and all critiques/corrections.
I'm pretty sure about the chorus chords and the guitar riffs,but the
verses gave me a little trouble. Charles and I got it pretty close
though. They play it with a capo, but this is without one. Standard
tuning for all the guitars.

~~~~~~~~~~~~~~~~~~~~~~~~~~~~~~~~~~~~~~~~~~~~~~~~~~~~~~~~~~~~~~~~~~


Intro Riff
E----------------------------------------------------------------|
B----------------------------------------------------------------|
G----10--10---12/14\12--10--10-------10--10---12/14\12--10--10~--|
D--10--10-----------------10--10~--10--10-----------------10-----|
A----------------------------------------------------------------|
E----------------------------------------------------------------| (x2)


Verse: (listen to the song for strumming, mainly power chords)
   F        Bb      C       Bb
E-------------------------------|
B-------------------------------|
G--10-------3-------5-------3---|
D--10-------3-------5-------3---|
A--8--------1-------3-------1---|
E-------------------------------| (x2)


Pre-Chorus: (listen to the song for strumming and mainly power chords)
   Bb      Am      Gm      F       Bb      A       Gm
E----------------------------------------------------------------|
B----------------------------------------------------------------|
G------------------12------10----------------------12------------|
D--8-------7-------12------10------8-------7-------12------------|
A--8-------7-------10------8-------8-------7-------10------------|
E--6-------5-----------------------6-------5---------------------|


Chorus:
   F       Dm      C       Gm
E-------------------------------|
B-------------------------------|
G----------7-------5------------|
D--3-------7-------5-------5----|
A--3-------5-------3-------5----|
E--1-----------------------3----| (2x)


Transitional Riff (Similar to the intro):
E----------------------------------------------------------------|
B----------------------------------------------------------------|
G----10--10---12/14\12--10--10-------10--10-----10--10--10--10---|
D--10--10-----------------10--10---10--10-----10--10--10--10-----|
A----------------------------------------------------------------|
E----------------------------------------------------------------|

Verse

Pre-Chorus

Chorus

Transitional Riff2/Outro Riff: (repeat the bracketed parts)

E-||----------------||----------||----------------||---------------|
B-||13-11-10--------||------10~-||13-11-10--------||-10-11-10------|
G-||---------10-(x6)||-10-10----||---------10-(x4)||---------12-10-|
D------------------------------------------------------------------|
A------------------------------------------------------------------|
E------------------------------------------------------------------|


Bridge: (Same chords as pre-chorus, listen for strum pattern)
   Bb      Am      Gm        F           Bb      Am      Gm
E--------------------------------     ---------------------------|
B--------------------------------     ---------------------------|
G------------------12-------10---     ------------------12~------|
D--8-------7-------12-------10---     --8-------7-------12~------|
A--8-------7-------10-------8----     --8-------7-------10~------|
E--6-------5---------------------(x2) --6-------5----------------|


Chorus x2

Outro Riff (same as transitional riff2)


~~~~~~~~~~~~~~~~~~~~~~~~~~~~~~~~~~~~~~~~~~~~~~~~~~~~~~~~~~~~~~~~~~~~~~~

There you have it. Sorry if it's a little messy, again it's my first tab.
            
Submit corrections

comments powered by Disqus
↑ Back to top | Sanctus Real Tabs for We Need Each Other. Lyrics for acoustic guitar and electric guitar. Tablatures and chords are parodies/interpretations of the original songs. You may use it for private study, scholarship, research or language learning purposes only