» » »

The Foight Song Tabs (ver.1)

Artists:  A B C D E F G H I J K L M N O P Q R S T U V W X Y Z # 

The Foight Song Tabs (ver.1)

Sanctus Real
Rating:
0/5 (0 votes)

Hard to play? Try these video lessons and learn fast.
                The Fight Song
Sanctus Real


Tune guitar down half step
Eb Ab Db Gb Bb Eb

INTRO

eb-------------------|
Bb-------------------|
Gb-------------------|  x2
Db---6---6-----------|
Ab-s4--7-----7---7---|
Eb---------5---5-----|

eb------------------------------|
Bb------------------------------|
Gb------------------------------|
Db---6---6----------------------|
Ab-s4--7---7-7--7-7-7-7-7-7-7-7-|
Eb---------5-5--5-5-5-5-5-5-5-5-|

  E5             A5 <--Matt's chords
eb------------------------------|
Bb------------------------------|
Gb-s9---------------------------|
Db---9--------------------------|
Ab-----11-9-7-11--12-11-9-7h9p7-|
Eb------------------------------|

1st VERSE
Chris does some muted strokes (Down, up - Down) then:

eb------------------------------------|
Bb------------------------------------|
Gb-9--11-13--11-9-8--6--8-9--14-13-11-|
Db------------------------------------|
Ab-7--9--11--9--7-6--4--6-7--12-11-9--|
Eb------------------------------------|
(Strum each one the appropriate amount)

CHORUS

  E5 B5 A5
eb---------|
Bb---------|
Gb-9--4--2-|
Db-9--4--2-|
Ab-7--2--0-|
Eb-0-------|
Strum each one (mostly downstrokes) the appropriate amount

2nd VERSE

(palm muted)

E5 B5 C#5 A5

BRIDGE

eb-----------------------------------|
Bb-----------------------------------|
Gb-6-6-8-4-4-9-9-9--6-6-4-9-9-9--9-9-|
Db-6-6-8-4-4-9-9-9--6-6-4-9-9-9--9-9-|
Ab-4-4-6-2-2-7-7-7--4-4-2-7-7-7--7-7-|
Eb-----------------------------------|

eb---------------------------------------------|
Bb---------------------------------------------|
Gb---------------------------------------------|
Db-6--4--6-----6h7p6--6--4---------6--4--------|
Ab-4--6----7----------4--6--7--7---4--6--7-7-7-|
Eb-------5---4--------------5--4---------5-5-5-|
 Again I'm not exact with strumming

The last chorus changes one measure to this:
eb---------|
Bb---------|
Gb---------|
Db-6--9--7-|
Ab-7--9--7-|
Eb-4--7--5-|

OUTRO

eb----------------------|
Bb-5--7--10--9----7--5--|
Gb-7b-9b-12b-11b--9b-7--|b
Db----------------------|
Ab----------------------|
Eb----------------------|
  Bend the note on Gb string up a whole step so it is the same note being played on Bb string
            
Hard to play? Try these video lessons and learn fast. | Correct




comments powered by Disqus
↑ Back to top | Tablatures and chords are parodies/interpretations of the original songs. You may use it for private study, scholarship, research or language learning purposes only