» » »

Fight Song Tabs (ver.1)

Artists:  A B C D E F G H I J K L M N O P Q R S T U V W X Y Z # 

Fight Song Tabs (ver.1)

Sanctus Real
Rating:
5/5 (3 votes)

Tabs too difficult? Try these video lessons and learn fast.
                INTRO

Eb|------------------------|
Bb|------------------------|(2x)
Gb|------------------------|
Db|---6----6---------------|     
Ab|-4----7-------7-----7---|
Eb|-----------5-----5------|
(3rd time, play first four notes, then hit A5 chord twice really fast)

eb|--------------------------|-------------------------|
Bb|--------------------------|-------------------------|
Gb|-------/9-----------------|-------------------------|
Db|----------9---------------|-------------------------|
Ab|------------11-11-9-7-/11-|-----/12-12-11-11-9-7h9--|
Eb|--------------------------|-7-7---------------------|

eb|--------------------------|-------------------------||
Bb|--------------------------|------------------------o||
Gb|--------------------------|-------------------------||
Db|--9-9-9---9--9--9---9---9-|-------------------------||
Ab|--7-7-7---7--7--7---7---7-|-9-9---9--9--9--9-9-9---o||
Eb|--------------------------|-7-7---7--7--7--7-7-7----||

VERSE

(rest for 4 measures)

  E               F#          G#
eb|-----------------------------------------|
Bb|-----------------------------------------|
Gb|-9-9-9-9-9-9-9-9-11-11-11-11-13-13-13-13-|
Db|-----------------------------------------|
Ab|-7-7-7-7-7-7-7-7--9--9--9--9-11-11-11-11-|
Eb|-----------------------------------------|


  F#                      E       D#
eb|------------------------------------------|
Bb|------------------------------------------|
Gb|-11-11-11-11-11-11-11-11-9-9-9-9-8-8-8-8--|
Db|------------------------------------------|
Ab|--9--9--9--9--9--9--9--9-7-7-7-7-6-6-6-6--|
Eb|------------------------------------------|


  C#              D#      E
eb|---------------------------------|
Bb|---------------------------------|
Gb|-6-6-6-6-6-6-6-6-8-8-8-8-9-9-9-9-|
Db|---------------------------------|
Ab|-4-4-4-4-4-4-4-4-6-6-6-6-7-7-7-7-|
Eb|---------------------------------|

  A                       G#        F#
eb|----------------------------------------------|
Bb|----------------------------------------------|
Gb|-14-14-14-14-14-14-14-14-13-13-13--11-11-11---|
Db|----------------------------------------------|
Ab|-12-12-12-12-12-12-12-12-11-11-11---9--9--9---|
Eb|----------------------------------------------|

CHORUS
    E5              B5                A5
    Gtr I
eb|----------------------------------|----------------------------------|
Bb|o---------------------------------|---------------------------------o|
Gb|----------------------------------|----------------------------------|
Db|--2-2-2-2-2-2-2-2-9-9-9-9-9-9-9-9-|-7-7-7-7-7-7-7-7-7-7-7-7-7-7-7-7--|
Ab|o-2-2-2-2-2-2-2-2-9-9-9-9-9-9-9-9-|-7-7-7-7-7-7-7-7-7-7-7-7-7-7-7-7-o|
Eb|--0-0-0-0-0-0-0-0-7-7-7-7-7-7-7-7-|-5-5-5-5-5-5-5-5-5-5-5-5-5-5-5-5--|

BRIDGE

     C#5             D#5           E5
eb|-------------------------------------------------------------|
bb|-------------------------------------------------------------|
Gb|-------------------------------------------------------------|
Db|--6-6-6-6-6-6-6-6-8-8-8-8-8-8-8-9-9-9-9-9-9-9-9--6h7p6-------|
Ab|--4-4-4-4-4-4-4-4-6-6-6-6-6-6-6-7-7-7-7-7-7-7-7--------7-4---|(repeat)
Eb|-------------------------------------------------------------|
            
Tabs too difficult? Try these video lessons and learn fast.




comments powered by Disqus
↑ Back to top | Tablatures and chords are parodies/interpretations of the original songs. You may use it for private study, scholarship, research or language learning purposes only