>
 >
Say It Loud

Say It Loud Guitar Tabs

Sanctus Real - Say It Loud chords, tabs, tablatures, lyrics

Guitar lessons | Add/correct | Request | Top 50 tabs Artists:  A B C D E F G H I J K L M N O P Q R S T U V W X Y Z 0-9

Say It Loud Guitar Tabs – Sanctus Real

CD, Sheet music, Poster

Do you like Say It Loud? Share with your friends now
Tabs
Copyright 2002 Birdwing Music

I re-tabbed this song in standard tuning, fixed the solo, added some missing
parts, etc. It might not be completely perfect, but its, very, very close.
Sanctus Real is the ultimate punk band. and they're christian too. they rock.

Standard Tuning

/,\ = slide
. = palm mute

  Intro

  Both Guitars
E|--------------------|
B|--------------------|
G|-6------------------|
D|-6------------------|
A|-4------------------|
E|--------------------|

E|--------------------------------------------------------------------------|
B|--------------------------------------------------------------------------|
G|-6-6--6-6-6-6--6-6-6--6-6--------6-6--6-6-6-6--6--------------------------|
D|-6-6--6-6-6-6--6-6-6--6-6-4-4--4-6-6--6-6-6-6--6-----3-----3-----3-----3/4|
A|-4-4--4-4--------4-4--4-4-4-4--4-4-4--4-4-x-x--x--------------------------|
E|----------6-6--6----------2-2--2----------6-6--6-2-2---2-2---2-2---2-2----|
                                                   . .   . .   . .   . .
  Verse
  Repeat 2x

  Guitar 1
E|--------------------------------------------------------------------------|
B|--------------------------------------------------------------------------|
G|--------------------------------------------------------------------------|
D|-----------------------------------------------------3-----3-----3-----3/4|
A|--------------------------------------------------------------------------|
E|-------------------------------------------------2-2---2-2---2-2---2-2----|
                                                   . .   . .   . .   . .
  Guitar 2
E|--------------------------------------------------------------------------|
B|--------------------------------------------------------------------------|
G|-6-6--6-6-6-6--6-6-6--6-6--------6-6--6-6-6-6--6--------------------------|
D|-6-6--6-6-6-6--6-6-6--6-6-4-4--4-6-6--6-6-6-6--6-----3-----3-----3-----3/4|
A|-4-4--4-4--------4-4--4-4-4-4--4-4-4--4-4-x-x--x--------------------------|
E|----------6-6--6----------2-2--2----------6-6--6-2-2---2-2---2-2---2-2----|
                                                   . .   . .   . .   . .

  Prechorus

  Both Guitars
E|-------------------------------------------------------------|
B|-------------------------------------------------------------|
G|-----------------3-3-3-3-3-3-3-3-6-6--6-6-6--6-10-10--10-6-6-|
D|-6-6-6-6-6-6-6-6-3-3-3-3-3-3-3-3-----------------------------|
A|-6-6-6-6-6-6-6-6-1-1-1-1-1-1-1-1-4-4--4-4-4--4-8--8---8--4-4-|
E|-4-4-4-4-4-4-4-4---------------------------------------------|
   . . . . . . . . . . . . . . . .

E|-----------------------------------------------------------------|
B|-----------------------------------------------------------------|
G|-----------------3-3-3-3-3-3-3-3---------------------------------|
D|-6-6-6-6-6-6-6-6-3-3-3-3-3-3-3-3-4-4-4-4-4-4-4-4-4-4-4-4-4-4-4-4-|
A|-6-6-6-6-6-6-6-6-1-1-1-1-1-1-1-1-4-4-4-4-4-4-4-4-4-4-4-4-4-4-4-4-|
E|-4-4-4-4-4-4-4-4-----------------2-2-2-2-2-2-2-2-2-2-2-2-2-2-2-2-|
   . . . . . . . . . . . . . . . . . . . . . . . . . . . . . . . .
  Chorus

  Guitar 1
  Repeat 2x
E|-----------------------------------------------------------------|
B|-----------------------------------------------------------------|
G|-6-6-6-6-6-6-6-6-----------------3-3-3-3-3-3-3-3-----------------|
D|-6-6-6-6-6-6-6-6-6-6-6-6-6-6-6-6-3-3-3-3-3-3-3-3-4-4-4-4-6-6-6-6-|
A|-4-4-4-4-4-4-4-4-6-6-6-6-6-6-6-6-1-1-1-1-1-1-1-1-4-4-4-4-6-6-6-6-|
E|-----------------4-4-4-4-4-4-4-4-----------------2-2-2-2-4-4-4-4-|

  Guitar 2
  Repeat 2x
E|-----------------------------------------------------------------|
B|-----------------------------------------------------------------|
G|-6-6-5-5-6-------6-6-5-5-6-------6-6-5-5-6-------6-6-5-5-6-------|
D|-----------------------------------------------------------------|
A|-----------------------------------------------------------------|
E|-----------------------------------------------------------------|

  Guitar 1
E|---------------------------------|
B|---------------------------------|
G|-5h6p5-10--5p6h5p6h5-10--10-11-6-|
D|---------------------------------|
A|---------------------------------|
E|---------------------------------|

E|------------------------------------------------------------------|
B|------------------------------------------------------------------|
G|-6-------------------------------11-11--11-11-11--11-10-10--10-11-|
D|-6---------------6------------------------------------------------|
A|-4---------------6---------------9--9---9--9--9---9--8--8---8--9--|
E|-----------------4------------------------------------------------|

  Verse
  Repeat 2x

  Guitar 1
E|--------------------------------------------------------------------------|
B|--------------------------------------------------------------------------|
G|-----------------------------------------------6\-------------------------|
D|-----------------------------------------------6\----3-----3-----3-----3/4|
A|------------------------------------------------\-------------------------|
E|-----------------------------------------------6\2-2---2-2---2-2---2-2----|
                                                   . .   . .   . .   . .
  Guitar 2
E|--------------------------------------------------------------------------|
B|--------------------------------------------------------------------------|
G|-6-6--6-6-6-6--6-6-6--6-6--------6-6--6-6-6-6--6--------------------------|
D|-6-6--6-6-6-6--6-6-6--6-6-4-4--4-6-6--6-6-6-6--6-----3-----3-----3-----3/4|
A|-4-4--4-4--------4-4--4-4-4-4--4-4-4--4-4-x-x--x--------------------------|
E|----------6-6--6----------2-2--2----------6-6--6-2-2---2-2---2-2---2-2----|
                                                   . .   . .   . .   . .
  Prechorus

  Both Guitars
E|-------------------------------------------------------------|
B|-------------------------------------------------------------|
G|-----------------3-3-3-3-3-3-3-3-6-6--6-6-6--6-10-10--10-6-6-|
D|-6-6-6-6-6-6-6-6-3-3-3-3-3-3-3-3-----------------------------|
A|-6-6-6-6-6-6-6-6-1-1-1-1-1-1-1-1-4-4--4-4-4--4-8--8---8--4-4-|
E|-4-4-4-4-4-4-4-4---------------------------------------------|
   . . . . . . . . . . . . . . . .

E|-----------------------------------------------------------------|
B|-----------------------------------------------------------------|
G|-----------------3-3-3-3-3-3-3-3-------------------------10------|
D|-6-6-6-6-6-6-6-6-3-3-3-3-3-3-3-3-4-4-4-4-4-4-4-4-4-4-4-4-10------|
A|-6-6-6-6-6-6-6-6-1-1-1-1-1-1-1-1-4-4-4-4-4-4-4-4-4-4-4-4-8-------|
E|-4-4-4-4-4-4-4-4-----------------2-2-2-2-2-2-2-2-2-2-2-2---------|
   . . . . . . . . . . . . . . . . . . . . . . . . . . . .

  Chorus

  Guitar 1
  Repeat 2x
E|-----------------------------------------------------------------|
B|-----------------------------------------------------------------|
G|-6-6-6-6-6-6-6-6-----------------3-3-3-3-3-3-3-3-----------------|
D|-6-6-6-6-6-6-6-6-6-6-6-6-6-6-6-6-3-3-3-3-3-3-3-3-4-4-4-4-6-6-6-6-|
A|-4-4-4-4-4-4-4-4-6-6-6-6-6-6-6-6-1-1-1-1-1-1-1-1-4-4-4-4-6-6-6-6-|
E|-----------------4-4-4-4-4-4-4-4-----------------2-2-2-2-4-4-4-4-|

  Guitar 2
  Repeat 2x
E|-----------------------------------------------------------------|
B|-----------------------------------------------------------------|
G|-6-6-5-5-6-------6-6-5-5-6-------6-6-5-5-6-------6-6-5-5-6-------|
D|-----------------------------------------------------------------|
A|-----------------------------------------------------------------|
E|-----------------------------------------------------------------|

  Guitar 1
E|---------------------------------|
B|---------------------------------|
G|-5h6p5-10--5p6h5p6h5-10--10-11-6-|
D|---------------------------------|
A|---------------------------------|
E|---------------------------------|

E|----------------------------------------------------|
B|------------------------------------/5---/5---/5-/5-|
G|-6--------------------------------------------------|
D|-6---------------6---------------4-4--4-4--4-4------|
A|-4---------------6---------------4-4--4-4--4-4------|
E|-----------------4---------------2-2--2-2--2-2------|

  Solo

  Guitar 1
E|------------------------------------------------|
B|------------------------------------------------|
G|------------------------------------------------|
D|-10h11p10-6-4-3-1------1--1----------1/3--3/4/6-|
A|------------------4--4------4-4-4--4------------|
E|------------------------------------------------|

  Guitar 2
E|-----------------------------------------------------------------|
B|-----------------------------------------------------------------|
G|-----------------------------------------------------------------|
D|-6-6-6-6-6-6-6-6-4-4-4-4-4-4-4-4-3-3-3-3-3-3-3-3-4-4-4-4-4-4-4-4-|
A|-6-6-6-6-6-6-6-6-4-4-4-4-4-4-4-4-3-3-3-3-3-3-3-3-4-4-4-4-4-4-4-4-|
E|-4-4-4-4-4-4-4-4-2-2-2-2-2-2-2-2-1-1-1-1-1-1-1-1-2-2-2-2-2-2-2-2-|
   . . . . . . . . . . . . . . . . . . . . . . . . . . . . . . . .
  Bridge

  Both Guitars
  Repeat 3x
E|---------------------------------|
B|---------------------------------|
G|---------------------------------|
D|-6-6-6-6-6-6-6-6-4-4-4-4-4-4-4-4-|
A|-6-6-6-6-6-6-6-6-4-4-4-4-4-4-4-4-|
E|-4-4-4-4-4-4-4-4-2-2-2-2-2-2-2-2-|
   . . . . . . . . . . . . . . . .

E|---------------------------------------------------|
B|---------------------------------------------------|
G|-3-3-3-3-3-3-3-3-----------------------------------|
D|-3-3-3-3-3-3-3-3-6-6-6-6-6-6-6-6-4-4-4-4-4-4-4-4/6-|
A|-1-1-1-1-1-1-1-1-6-6-6-6-6-6-6-6-4-4-4-4-4-4-4-4/6-|
E|-----------------4-4-4-4-4-4-4-4-2-2-2-2-2-2-2-2/4-|

  Prechorus 2

  Guitar 2
E|---------------|
B|---------------|
G|-6---6---6-----|
D|-6---6---6---4-|
A|-4---x---4---4-|
E|-----6-------2-|

  Both Guitars
E|-------------------------------------------------------------|
B|-------------------------------------------------------------|
G|-----------------3-3-3-3-3-3-3-3-6-6--6-6-6--6-10-10--10-6-6-|
D|-6-6-6-6-6-6-6-6-3-3-3-3-3-3-3-3-6-6-------------------------|
A|-6-6-6-6-6-6-6-6-1-1-1-1-1-1-1-1-4-4--4-4-4--4-8--8---8--4-4-|
E|-4-4-4-4-4-4-4-4---------------------------------------------|

E|-----------------------------------------------------------|
B|-----------------------------------------------------------|
G|-----------------3-3-3-3-3-3-3-3---------------------------|
D|-6-6-6-6-6-6-6-6-3-3-3-3-3-3-3-3-4-4-4-4-4-4-4-4-4-4-4-4-4-|
A|-6-6-6-6-6-6-6-6-1-1-1-1-1-1-1-1-4-4-4-4-4-4-4-4-4-4-4-4-4-|
E|-4-4-4-4-4-4-4-4-----------------2-2-2-2-2-2-2-2-2-2-2-2-2-|
                                     . . . . . . . . . . . 
  Guitar 1
E|-----------------------------------------------------------------|
B|-----------------------------------------------------------------|
G|-6-6-6-6-6-6-6-6-5-5-5-5-5-5-5-5-3-3-3-3-3-3-3-3-----------------|
D|-6-6-6-6-6-6-6-6-5-5-5-5-5-5-5-5-3-3-3-3-3-3-3-3-6-6-6-6-4-4-4-4-|
A|-4-4-4-4-4-4-4-4-3-3-3-3-3-3-3-3-1-1-1-1-1-1-1-1-6-6-6-6-4-4-4-4-|
E|-------------------------------------------------4-4-4-4-2-2-2-2-|

  Guitar 2
E|-----------------------------------------------------------------|
B|-----------------------------------------------------------------|
G|-6-6---6---------5-5---5---------3-3---3----------1-1------------|
D|---------------------------------------------------------4-4-----|
A|-----------------------------------------------------------------|
E|-----------------------------------------------------------------|

  Guitar 1
E|-----------------------------------------------------------------|
B|-----------------------------------------------------------------|
G|-------------------------------------------------3-3-3-3-5-5-5-5-|
D|-3-3-3-3-3-3-3-3-4-4-4-4-4-4-4-4-6-6-6-6-6-6-6-6-3-3-3-3-5-5-5-5-|
A|-3-3-3-3-3-3-3-3-4-4-4-4-4-4-4-4-6-6-6-6-6-6-6-6-1-1-1-1-3-3-3-3-|
E|-1-1-1-1-1-1-1-1-2-2-2-2-2-2-2-2-4-4-4-4-4-4-4-4-----------------|

  Guitar 2
E|-----------------------------------------------------------------|
B|-----------------------------------------------------------------|
G|---------------------------------1-1---1---------3-3-----5-5-----|
D|-3-3---3---------4-4---4-----------------------------------------|
A|-----------------------------------------------------------------|
E|-----------------------------------------------------------------|

  Guitar 1
  Repeat 2x
E|-----------------------------------------------------------------|
B|-----------------------------------------------------------------|
G|-6-6-6-6-6-6-6-6-----------------3-3-3-3-3-3-3-3-----------------|
D|-6-6-6-6-6-6-6-6-6-6-6-6-6-6-6-6-3-3-3-3-3-3-3-3-4-4-4-4-6-6-6-6-|
A|-4-4-4-4-4-4-4-4-6-6-6-6-6-6-6-6-1-1-1-1-1-1-1-1-4-4-4-4-6-6-6-6-|
E|-----------------4-4-4-4-4-4-4-4-----------------2-2-2-2-4-4-4-4-|

  Guitar 2
  Repeat 2x
E|-----------------------------------------------------------------|
B|-----------------------------------------------------------------|
G|-6-6-5-5-6-------6-6-5-5-6-------6-6-5-5-6-------6-6-5-5-6-------|
D|-----------------------------------------------------------------|
A|-----------------------------------------------------------------|
E|-----------------------------------------------------------------|

  Both Guitars
E|-------------------------------------------------------|
B|-------------------------------------------------------|
G|-6--6--6-6-6-6--6-----------3--3--3-3-3-3--3-----------|
D|-6--6--6-6-6-6--6-6--6--6-6-3--3--3-3-3-3--3-4--4--4-4-|
A|-4--4--4-4-4-4--4-6--6--6-6-1--1--1-1-1-1--1-4--4--4-4-|
E|------------------4--4--4-4------------------2--2--2-2-|

E|-------------------------------------------------------|
B|-------------------------------------------------------|
G|-6--6--6-6-6-6--6-----------4--4--4-4-4-4--4-----------|
D|-6--6--6-6-6-6--6-6--6--6-6-4--4--4-4-4-4--4-4--4--4-4-|
A|-4--4--4-4-4-4--4-6--6--6-6-2--2--2-2-2-2--2-4--4--4-4-|
E|------------------4--4--4-4------------------2--2--2-2-|

E|----------------------------|
B|----------------------------|
G|-6-6--6-6-6--------6--------|
D|-6-6--6-6-6-6-6--6-6--------|
A|-4-4--4-4-4-6-6--6-4--------|
E|------------4-4--4----------|





Comments


Popular Sanctus Real tabs & chords
Eternal Chords
I'll Show You How To Live Chords
Lead Me 1 Chords
Promises 1 Chords
Say Goodbye 1 Chords
Captians Chair Tabs
Closer Tabs
Were Trying Intro 1 Tabs
Magnetic Ukulele
Say Goodbye Ukulele


Song lyrics



↑ Back to top | Tablatures and chords are parodies/interpretations of the original songs. You may use it for private study, scholarship, research or language learning purposes only
© 2014 AZChords.com Contact us | Privacy policy | DMCA | Add/correct tabs | Request tabs | Top 50 tabs