>
 >
Half Of Our Lives

Half Of Our Lives Guitar Tabs

Sanctus Real - Half Of Our Lives chords, tabs, tablatures, lyrics

Guitar lessons | Add/correct | Request | Top 50 tabs Artists:  A B C D E F G H I J K L M N O P Q R S T U V W X Y Z 0-9

Half Of Our Lives Guitar Tabs – Sanctus Real

CD, Sheet music, Poster

Do you like Half Of Our Lives? Share with your friends now
Tabs
Guitar 1: No Capo
Guitar 2: Capo On 6th

Chords in brackets are for guitar 2, played optionally. 

Intro: F#(C) B(Em) F#(C) B(Em)

Riff A: Guitar 2 (capo on the 6th fret)
e|----------------------------------------------------------------|
B|----------------------------------------------------------------|
G|--------0--------0--------0--------0------0---5-4------2-0------|
D|----0h2------0h2------0h2------0h2----------2-------------------|
A|--3--------3--------3--------3----------3------------3----------|
E|----------------------------------------------------------------|

Riff A[
   F#(C)                         B(Em)                      F#(C)               B(Em)
Oh I want every second of the minutes in the hours of these days..............................

      F#(C)
Cause there's too many trees to climb

    B(Em)                                 F#(C)                 B(Em)
And secret spots to find down by the lake...................................    ]

           C#(G)             B(Em)
Oh the fireflies are out and momma's calling now


Guitar 2 (Relative to Capo)
e|----------------------------------------------------------------|
B|-3-1-0--------------5-3-----------------------------------------|
G|-------2-0--------------5/7-5-----------------4-5-7-9-----------|
D|------------------------------------------------------5-7-------|
A|----------------------------------------------------------5-7---|
E|----------------------------------------------------------------|

Guitar 1 (No Capo)
e|----------------------------------------------------------------|
B|------------------------------------------------------2-4-------|
G|--------------------------------------------------1-3-----1-3---|
D|-------------------------------8-6------------3-4---------------|
A|------------9-8-6------------------9-6--------------------------|
E|-----------------9----------------------------------------------|


B(Em)                             E   D   B    A 
We can't go to sleep cause we'll wake up old - er

                                                Riff A[
C#(G)                     B(Em)                 F#(C)           B(Em)           F#(C)       B(Em)
We can't let these nights steal away half our lives...............................................

    F#(C)                           B(Em)                       F#(C)           B(Em)
And we will spend our days finding helpless competition to defeat................................

            F#(C)                       B(Em)
Yeah we'll chase away the girls and pretend

                                   F#(C)        B(Em)
that we don't want 'em on our street......................      ]

         C#(G)
Yeah the sun is running too

         B(Em)
Being chased off by the moon

C#(G)                                   B(Em)
And we should go to bed but we'll catch fireflies instead


Guitar 2 (Relative to Capo)
e|----------------------------------------------------------------|
B|-3-1-0--------------5-3-----------------------------------------|
G|-------2-0--------------5/7-5-----------------4-5-7-9-----------|
D|------------------------------------------------------5-7-------|
A|----------------------------------------------------------5-7---|
E|----------------------------------------------------------------|

Guitar 1 (No Capo)
e|----------------------------------------------------------------|
B|------------------------------------------------------2-4-------|
G|--------------------------------------------------1-3-----1-3---|
D|-------------------------------8-6------------3-4---------------|
A|------------9-8-6------------------9-6--------------------------|
E|-----------------9----------------------------------------------|


B(Em)                             E   D   B    A
We can't go to sleep cause we'll wake up old - er

B(Em)                      E    B    D 
We can't let these nights steal a - way

B(Em)                           E   D   B      A 
And I don't want these days to ev - er be o - ver

C#(G)                           B(Em)
We can't let these nights just steal away


C#(G)   B(Em)           C#(G)
Oh just stay awake with me

C#(G)     B(Em)
Won't you stay awake with me

C#(G)              B(Em)
Oh stay awake with me



B(Em)                             E   D   B    A
We can't go to sleep cause we'll wake up old - er

B(Em)                      E    B    D
We can't let these nights steal a - way

B(Em)                           E   D   B      A
And I don't want these days to ev - er be o - ver

C#(G)                           B(Em)
We can't let these nights just steal away


Riff A[                                 ]
Outro: F#(C) B(Em) F#(C) B(Em)     F#(C)





Comments


Popular Sanctus Real tabs & chords
Everything About You Chords
I'll Show You How To Live Chords
I'm Not Alright Chords
Run 1 Chords
Til I Got To Know You Chords
Black Coal Ukulele
Closer Ukulele
Im Not Alright Ukulele
Take Over Me Ukulele
We Need Each Other Ukulele


Song lyrics



↑ Back to top | Tablatures and chords are parodies/interpretations of the original songs. You may use it for private study, scholarship, research or language learning purposes only
© 2014 AZChords.com Contact us | Privacy policy | DMCA | Add/correct tabs | Request tabs | Top 50 tabs