» » »

Sanctus Real, Fly Tabs (ver.1)

Artists:  A B C D E F G H I J K L M N O P Q R S T U V W X Y Z # 

Fly Tabs (ver.1)

Sanctus Real Tabs
 Rating:
3.8/5 (5 votes)
Fly lessons Tabs too difficult? Try these video lessons and learn fast
                
Tuning: Standard

Verse: P.M.
e|----------------------------|----------------------------|
B|----------------------------|----------------------------|
G|----77777777----------------|-----77777777---------------|
D|----77777777----77777777----|-----77777777---77777777----|
A|----44444444----77777777----|-----44444444---77777777----|
E|----------------44444444----|----------------44444444----|

e|----------------------------|----------------------------|
B|----------------------------|----------------------------|
G|-----77777777---------------|----------------------------|
D|-----77777777---77777777----|------99999999--------------|
A|-----44444444---77777777----|------99999999--------------|
E|----------------44444444----|------77777777--------------|

x2

Chorus:

e|---------------------------------------------------------|
B|---------------------------------------------------------|
G|----99999999---------------------------------------------|
D|----99999999---77777777-----99999999--99999999-----------|
A|----77777777---77777777-----99999999--99999999-----------|
E|---------------44444444-----77777777--77777777-----------|

x2

Solo:

e|------------------|
B|------7-9---------|
G|----9-----8-------|
D|------------------|
A|------------------|
E|------------------|

x2

Verse:
e|----------------------------|----------------------------|
B|----------------------------|----------------------------|
G|----77777777----------------|-----77777777---------------|
D|----77777777----77777777----|-----77777777---77777777----|
A|----44444444----77777777----|-----44444444---77777777----|
E|----------------44444444----|----------------44444444----|

e|----------------------------|----------------------------|
B|----------------------------|----------------------------|
G|-----77777777---------------|----------------------------|
D|-----77777777---77777777----|------99999999---99999999---|
A|-----44444444---77777777----|------99999999---99999999---|
E|----------------44444444----|------77777777---77777777---|

e|-----------------|
B|-----------------|
G|-----------------|
D|----44444444-----|
A|----44444444-----|
E|----22222222-----|

Chorus:

e|---------------------------------------------------------|
B|---------------------------------------------------------|
G|----99999999---------------------------------------------|
D|----99999999---77777777-----99999999--99999999-----------|
A|----77777777---77777777-----99999999--99999999-----------|
E|---------------44444444-----77777777--77777777-----------|

x3

Solo:

e|-------------------------------------------------------|
B|-------------------------------------------------------|
G|---9-8-6-4------9-8-6-4-------9-8-6-4----4-------------|
D|-----------6------------2-4-----------6-----2--4--777--|
A|--------------------------------------------------777--|
E|--------------------------------------------------555--|

Bridge:

e|--4--|--4--|   |--7--|
B|--5--|--4--|   |--7--|
G|--6--|--4--|   |--8--|
D|--6--|--6--|x2 |--9--|
A|--4--|--6--|   |--9--|
E|-----|--4--|   |--7--|


Chorus:

e|------------------------------------------------------|
B|------------------------------------------------------|
G|----99999999------------------------------------------|
D|----99999999---77777777-----99999999--99999999--------|
A|----77777777---77777777-----99999999--99999999--------|
E|---------------44444444-----77777777--77777777--------|

x4

Ending Solo:

e|------------------|
B|------------------|
G|---9-8-6-4--9-----|
D|------------9-----|
A|------------7-----|
E|------------------|
            
Submit corrections

comments powered by Disqus
↑ Back to top | Sanctus Real Tabs for Fly. Lyrics for acoustic guitar and electric guitar. Tablatures and chords are parodies/interpretations of the original songs. You may use it for private study, scholarship, research or language learning purposes only