>
 >
Everything About You

Everything About You Bass Tabs

Sanctus Real - Everything About You chords, tabs, tablatures, lyrics

Guitar lessons | Add/correct | Request | Top 50 tabs Artists:  A B C D E F G H I J K L M N O P Q R S T U V W X Y Z 0-9

Everything About You Bass Tabs – Sanctus Real

CD, Sheet music, Poster

Do you like Everything About You? Share with your friends now
Bass TabsChordsChords v2Ukulele
(c)2004 Sparrow Records


INTRO
Gb------------------|----------1st time|----------2--------|nd time
Db-------------7-54-|------------------|-------------------|
Ab--2-2-0240-0-----5|----5--5-4-5-754--|----50-----4-540---|
Db------------------|5-5--5------------|2-2----5-5---------|


VERSE 1
Gb-----------------------------------|
Db-----------------------------------|
Ab--2-2-2-2-0-0-0-0------------------|
Db------------------2-2-2-2-5-5-5-5--| Repeat 3x

Gb---------------------------------------|
Db---------------------------------------|
Ab--2-2-2-2-0-0-0-0-7-7-7-7-10-10-10-10--|
Db---------------------------------------|

Gb---------------------------------|
Db---------------------------------|
Ab--0-0-0-0-0-0-0-0----------------|
Db------------------5-5-5-5-22222--|


CHORUS
Gb-------------------------------------------------------|
Db-------------------------------------------------------|
Ab----02-----2-2-2-2-0-0-0-0------------0-0-0-0-(5-420)--|
Db--5----0-------------------5-55--0---------------------|

Gb----------------------------------------------------------|
Db----------------------------------------------(11-12-14)--|
Ab----02-----2-2-2450-0-0-0-------------0-0-0-0*------------|
Db--5----0-------------------5-5-5420-----------------------|
(these are licks that you don't have to play)
* =  let ring


PRE-VERSE 2
Gb------------------------------------------|
Db-------------7-540----------------- <-- 0-| here is easier to play
Ab--2-2-0240-0----------50-----4-54---------|
Db------------------2-2----5-5--------------|


VERSE 2
Gb------------------------------------|
Db--------------7-54------------------|
Ab--2-2-2-2-0-0-----5----5----5555----|
Db-------------------5-5--5-5-----55--|

Gb------------------|------------1st time|-----------2--------|nd time
Db------------------|----2-2-----544\----|--------------------|
Ab--2-2-2-2-0-0-0-0-|--------------------|-7-7-7-7------------|
Db------------------|2-2-----5-5---------|---------5-5-5-7/---|

Gb---------------------------------------------|
Db---------------------------------------------|
Ab--12-12-12-12-12-12-12-12-10-10-10-10\-------|
Db-------------------------------------22222--|


CHORUS
Gb-------------------------------------------------------|
Db-------------------------------------------------------|
Ab----02-----2-2-2-2-0-0-0-0------------0-0-0-0-0-0-0-0--|
Db--5----0-------------------5-55--0---------------------|

Gb----------------------------------------------------------|
Db----------------------------------------------(11-12-14)--|
Ab----02-----2-2-2450-0-0-0-------------0-0-0-0*------------|
Db--5----0-------------------5-5-5420-----------------------|


BRIDGE
Gb------------------------------------|
Db------------------------------------|
Ab--2-2-0222----0---------5-----------|
Db-----------24----2-2-02---22-2-4-4--|

Gb------------------------------------|
Db------------------------------------|
Ab--2-2-0225----0---------5-454-5/----|
Db-----------24----2-2-02-------------|

Gb------------------------------------|
Db--9-9-9111212-11-9-7--76----5---05--|
Ab---------------------------7--------|
Db------------------------------------|

Gb--------------------------------------|
Db--9-9-9111212-11-9-7--------5---------|
Ab----------------------7-----------/\--|
Db--------------------------------------|

Gb------------------------------------|
Db------------------------------------|
Ab--222222200000000-------------------|
Db-----------------22222222555555555--|
Repeat 3x

Gb---------------------|
Db---------------------|
Ab---------------------|
Db--22222222555555555


CHORUS
Gb--------------------------------------------|
Db--------------------------------------------|
Ab--22-22-0-04-5------02-----0-0-0-0-0-0-0-0--|
Db---------------5-5-5--0---------------------|

Gb----------------------------------------------------------|
Db----------------------------------------------(11-12-14)--|
Ab----02-----2-2-2450-0-0-0-------------0-0-0-0*------------|
Db--5----0-------------------5-5-5420-----------------------|


ENDING
Gb-----------------------------------|
Db-----------------------------------|
Ab-----------------------------------|
Db--2-2-2-2/5-5-5-5-0-0-0-0-0-0-0-0--|





Comments


Popular Sanctus Real tabs & chords
Audience Of One Chords
Change Me 1 Chords
Closer Chords
Don't Give Up Chords
Forgiven 2 Chords
I Love You 1 Chords
The Face Of Love Chords
Beautiful Day Tabs
Change Me Tabs
Closer Ukulele


Song lyrics



↑ Back to top | Tablatures and chords are parodies/interpretations of the original songs. You may use it for private study, scholarship, research or language learning purposes only
© 2014 AZChords.com Contact us | Privacy policy | DMCA | Add/correct tabs | Request tabs | Top 50 tabs