>
 >
Closer

Closer Chords

Sanctus Real - Closer chords, tabs, tablatures, lyrics

Guitar lessons | Add/correct | Request | Top 50 tabs Artists:  A B C D E F G H I J K L M N O P Q R S T U V W X Y Z 0-9

Closer Chords – Sanctus Real

CD, Sheet music, Poster

Do you like Closer? Share with your friends now
ChordsTabsUkulele
down a half step

Verse
C      G      Em      C    D
I'm not satisfied in this lifetime
C      G      Em      C    D
I'm following you to the other side
C      G      Em      C    D
There's nothing that can change my mind
C      G      Em      C    D
You're all I need

Interlude
     C            G             C            D

Verse
C      G      Em      C    D
You're the only tie that binds my heart
C      G      Em      C    D
Away from you I'm falling apart
C      G      Em      C    D
We need to be closer than we are
C      G      Em      C    D
You're all I need

Chorus
C        G         C       D
So what can I do to get closer?
C        G         C       D
I know there is more my heart can bear
C          G            D
I give you control 'cause I need you
C       D       G
To take me there

Verse
C        G          Em          C    D
Like a bird flying south I'm seeking you out
C        G          Em         C    D
And there's no rope that can tie me down
C        G        Em        C    D
I'm running home, I'm a slave set free
C    G   Em    C    D
You're all I need

Bridge
Em7  Bm7    
I am waiting 
Bm7* Bm7**
Draw me closer
Em7   D     
I am waiting
Dadd9   C
Make me stronger

Guitar 1 
     Em7  Bm7    Bm7* Bm7** Em7   D     Dadd9 C
eb||----------|--10----7--|-----------|--0----0--|
Bb||--8----10-|--7-----7--|--8----7---|--3----1--|
Gb||--7----7--|--7-----7--|--7----7---|--0----0--|
Db||--9----9--|--7-----7--|--9----7---|--4----2--|
Ab||----------|-----------|-----------|----------|
Eb||----------|-----------|-----------|----------|

Solo 
eb||----------------------------------|----------------------------------|
Bb||--12------12------12------12--13--|--13------13------12------12------|
Gb||------12------12------12----------|------12------12------12------12--|
Db||----------------------------------|----------------------------------|
Ab||----------------------------------|----------------------------------|
Eb||----------------------------------|----------------------------------|

|----------------------------------|--------------------------|
|--12------12------12------12------|--------------------------|
|------12------12------12------12--|---14------12-------------|
|----------------------------------|--------------------------|
|----------------------------------|--------------------------|
|----------------------------------|--------------------------|

|--12-------12------------------|------------------------15--17--|
|--15b------15b------15--17-----|--15----15--17--15-17b---------|
|-------------------------------|--------------------------------|
|-------------------------------|--------------------------------|
|-------------------------------|--------------------------------|
|-------------------------------|--------------------------------|

|--17--15--15--17--19--17--17------|--17--19--19--20--20--19--19--1715-|
|----------------------------------|------------------------------------|
|----------------------------------|------------------------------------|
|----------------------------------|------------------------------------|
|----------------------------------|------------------------------------|
|----------------------------------|------------------------------------|

Solo Chords
Em    |D\F#   |G    |C   |





Comments


Popular Sanctus Real tabs & chords
Face Of Love 1 Chords
Lead Me Chords
Alone Tabs
Closer Tabs
Were Trying Intro 1 Tabs
Dont Give Up Ukulele
Eternal Ukulele
Keep My Heart Alive Ukulele
On Your Own Ukulele
Take Over Me Ukulele


Song lyrics



↑ Back to top | Tablatures and chords are parodies/interpretations of the original songs. You may use it for private study, scholarship, research or language learning purposes only
© 2014 AZChords.com Contact us | Privacy policy | DMCA | Add/correct tabs | Request tabs | Top 50 tabs