» » »

Sanctus Real, Change Me Tabs (ver.1)

Artists:  A B C D E F G H I J K L M N O P Q R S T U V W X Y Z # 

Change Me Tabs (ver.1)

Sanctus Real Tabs
Rating:
5/5 (2 votes)
Change Me lessons Tabs too difficult? Try these video lessons and learn fast
                Tuning: Standard (EADGBe)

Capo 1

| () fretted note
| *  harmonic
| .  palm-mute
| ~  let ring

I tabbed out the rhythm for the most part, but as a rule just feel it out

[Intro] Played with harmonics. (5)17* means you would hold down the 5th fret with your
left hand and then use your right pointer finger to hold over the 17th fret, using some
other finger on your right hand to pluck the string somewhere above the 17th fret, say 
the 18th fret or so--hence making the sound of the harmonic. Give it a shot. ;) You
shouldn't have to move your left hand too much on the intro, it's mostly just in the 
shape of a G barre chord.

If you don't want to use harmonics, look at the end of the song for how it's played
without them.
e|-------------------------------------------------------------------------|
B|-------------------------------------------------------------------------|
G|--------------------------------------------(4)16*-(4)16*-(4)16*-(4)16*--|
D|--(5)17*-(5)17*-(5)17*-(5)17*-(2)14*-(5)17*------------------------------|
A|-------------------------------------------------------------------------|
E|-------------------------------------------------------------------------|

e|-------------------------------------------------|
B|----------------(3)15*~-----------------(3)15*~--|
G|---------(4)16*------------------(4)16*----------|
D|--(5)17*------------------(5)17*-----------------|
A|-------------------------------------------------|
E|-------------------------------------------------|

  Am        Bm        C         G         F
e|-----------------------------------------------------------------------|
B|----------------------------------------1---------1---------1---------1|
G|2--2-2-2--4--4-4-4--5--5-5-5------------2---------2---------2---------2| x2
D|2--2-2-2--4--4-4-4--5--5-5-5--5--5-5-5--3--3-3-3--3--3-3-3--3--3-3-3--3|
A|0--0-0-0--2--2-2-2--3--3-3-3--5--5-5-5--3--3-3-3--3--3-3-3--3--3-3-3--3|
E|------------------------------3--3-3-3--1--1-1-1--1--1-1-1--1--1-1-1--1|

[Verse 1]
Did I change Your mind...
e|--------------------------------------------------------------------------|
B|--------------------------------------------------------------------------|
G|--2--2-2-2--4--4-4-4--5--5-5-5--------------------------------------------|
D|--2--2-2-2--4--4-4-4--5--5-5-5--5--5-5-5--3--3-3-3--3--3-3-3--3--3-3-3--3-|
A|--0--0-0-0--2--2-2-2--3--3-3-3--5--5-5-5--3--3-3-3--3--3-3-3--3--3-3-3--3-|
E|--------------------------------3--3-3-3--1--1-1-1--1--1-1-1--1--1-1-1--1-|

With what I said last night?
e|---------------------------------------------|
B|---------------------------------------------|
G|--2--2-2-2--4--4-4-4--5--5-5-5---------------|
D|--2--2-2-2--4--4-4-4--5--5-5-5--5--5-5-5--3--|
A|--0--0-0-0--2--2-2-2--3--3-3-3--5--5-5-5--3--|
E|--------------------------------3--3-3-3--1--|

Did I break Your heart...by straying so far
e|-----------------------------------------------------------------------|
B|----------------------------------------1---------1---------1---------1|
G|2--2-2-2--4--4-4-4--5--5-5-5------------2---------2---------2---------2| x2
D|2--2-2-2--4--4-4-4--5--5-5-5--5--5-5-5--3--3-3-3--3--3-3-3--3--3-3-3--3|
A|0--0-0-0--2--2-2-2--3--3-3-3--5--5-5-5--3--3-3-3--3--3-3-3--3--3-3-3--3|
E|------------------------------3--3-3-3--1--1-1-1--1--1-1-1--1--1-1-1--1|

e|-----------------------------------------------------------------|
B|-----------------------------------------------------------------|
G|--2--2-2-2--2--2-2-2--2--2-2-2--2--2-2-2-------------------------|
D|--2--2-2-2--2--2-2-2--2--2-2-2--2--2-2-2--3--3-3-3--3--3-3-3--3--|
A|--0--0-0-0--0--0-0-0--0--0-0-0--0--0-0-0--3--3-3-3--3--3-3-3--3--|
E|------------------------------------------1--1-1-1--1--1-1-1--1--|

[Chorus 1]
Would You change me...
e|------------------------------------------|
B|--1--1-1-1--1--1-1-1----------------------|
G|--0--0-0-0--0--0-0-0----------------------|
D|--2--2-2-2--2--2-2-2--3--3-3-3--3--3-3-3--|
A|--3--3-3-3--3--3-3-3--3--3-3-3--3--3-3-3--|
E|----------------------1--1-1-1--1--1-1-1--|

e|------------------------------------------|
B|------------------------------------------|
G|--2--2-2-2--2--2-2-2----------------------|
D|--2--2-2-2--2--2-2-2--3--3-3-3--3--3-3-3--|
A|--0--0-0-0--0--0-0-0--3--3-3-3--3--3-3-3--|
E|----------------------1--1-1-1--1--1-1-1--|

'Cause I know I'm nothing
e|------------------------------------------|
B|--1--1-1-1--1--1-1-1----------------------|
G|--0--0-0-0--0--0-0-0----------------------|
D|--2--2-2-2--2--2-2-2--5--5-5-5--5--5-5-5--|
A|--3--3-3-3--3--3-3-3--5--5-5-5--5--5-5-5--|
E|----------------------3--3-3-3--3--3-3-3--|

Without You
e|-----------------------------------|
B|-----------------------------------|
G|-----------------------------------|
D|--3--3-3-3--3--3-3-3--3--3-3-3--3--|
A|--3--3-3-3--3--3-3-3--3--3-3-3--3--|
E|--1--1-1-1--1--1-1-1--1--1-1-1--1--|


[Post-Chorus]
{Gtr 1}
e|-----------------------------------------------------------------------|
B|----------------------------------------1---------1---------1---------1|
G|2--2-2-2--4--4-4-4--5--5-5-5------------2---------2---------2---------2| x2
D|2--2-2-2--4--4-4-4--5--5-5-5--5--5-5-5--3--3-3-3--3--3-3-3--3--3-3-3--3|
A|0--0-0-0--2--2-2-2--3--3-3-3--5--5-5-5--3--3-3-3--3--3-3-3--3--3-3-3--3|
E|------------------------------3--3-3-3--1--1-1-1--1--1-1-1--1--1-1-1--1|

{Gtr 2}
e|--------------------|
B|--------------------|
G|--------------------| x2
D|--------------------|
A|---0--2--3----------|
E|------------3--1~---|

[Verse 2]
Did my words betray...the patience I once claimed?
e|-----------------------------------------------------------------------|
B|-----------------------------------------------------------------------|
G|2--2-2-2--4--4-4-4--5--5-5-5-------------------------------------------| x2
D|2--2-2-2--4--4-4-4--5--5-5-5--5--5-5-5--3--3-3-3--3--3-3-3--3--3-3-3--3|
A|0--0-0-0--2--2-2-2--3--3-3-3--5--5-5-5--3--3-3-3--3--3-3-3--3--3-3-3--3|
E|------------------------------3--3-3-3--1--1-1-1--1--1-1-1--1--1-1-1--1|

Can't You see it in my face? I need Your grace...
e|-----------------------------------------------------------------|
B|-----------------------------------------------------------------|
G|--2--2-2-2--2--2-2-2--2--2-2-2--2--2-2-2-------------------------|
D|--2--2-2-2--2--2-2-2--2--2-2-2--2--2-2-2--3--3-3-3--3--3-3-3--3--|
A|--0--0-0-0--0--0-0-0--0--0-0-0--0--0-0-0--3--3-3-3--3--3-3-3--3--|
E|------------------------------------------1--1-1-1--1--1-1-1--1--|


[Chorus 2]
Would You change me...from who I've been lately?
(Would You save me...from the way I've been lately?)
e|---------------------------------------------------------------------- |  \
B|------------------------------------------------------------------| -- |
G|--5--5-5--5--5-5------------------2--2-2--2--2-2------------------| -- |
D|--5--5-5--5--5-5--3--3-3--3--3-3--2--2-2--2--2-2--3--3-3--3--3-3--| -- |
A|--3--3-3--3--3-3--3--3-3--3--3-3--0--0-0--0--0-0--3--3-3--3--3-3--| -- |
E|------------------1--1-1--1--1-1------------------1--1-1--1--1-1--| -- |
                                                                       |
'Cause I know I'm nothing without You                                  | x2
('Cause I can't see living without You)                                |
e|------------------------------------------------------------------| -- |
B|------------------------------------------------------------------| -- |
G|--5--5-5--5--5-5--------------------------------------------------| -- |
D|--5--5-5--5--5-5--5--5-5--5--5-5--3--3-3--3--3-3--3--3-3--3--3-3--| -- |
A|--3--3-3--3--3-3--5--5-5--5--5-5--3--3-3--3--3-3--3--3-3--3--3-3--| -- |
E|------------------3--3-3--3--3-3--1--1-1--1--1-1--1--1-1--1--1-1------ |  /

[Bridge]
e|------------------------------------------------------------------|
B|------------------------------------------------------------------|
G|--5--5-5--5--5-5--------------------------------------------------| x2
D|--5--5-5--5--5-5--2--2-2--2--2-2--5--5-5--5--5-5--5--5-5--5--5-5--|
A|--3--3-3--3--3-3--2--2-2--2--2-2--5--5-5--5--5-5--5--5-5--5--5-5--|
E|------------------0--0-0--0--0-0--3--3-3--3--3-3--3--3-3--3--3-3--|

(NOTE: relax palm muting second time around on the G power chord)

So would you speak to me...and show me what I need?
e|----------------------------------------------------------|
B|----------------------------------------------------------|
G|------------------------------5-5-5--5-5-5----------------| x2
D|--2-2-2--2-2-2--3-3-3--3-3-3--5-5-5--5-5-5--5-5-5--5-5-5--|
A|--2-2-2--2-2-2--3-3-3--3-3-3--3-3-3--3-3-3--5-5-5--5-5-5--|
E|--0-0-0--0-0-0--1-1-1--1-1-1----------------3-3-3--3-3-3--|
    ......................................................

(Instrumental first two times; vocals come in on the third repeat)
Is it patience, kindness, all that's in between? Loving others...
e|--------------------------------------------------|
B|--------------------------------------------------|
G|--2-2-2---5-5-5-----------------------------------| x4
D|--2-2-2---5-5-5---3--3-3--3--3-3--3--3-3--3--3-3--|
A|--0-0-0---3-3-3---3--3-3--3--3-3--3--3-3--3--3-3--|
E|------------------1--1-1--1--1-1--1--1-1--1--1-1--|


[Chorus 3]
    Would You change me...from who I've been lately?
e|----------------------------------------------------|
B|--1---------1----------------0-------------1--------|
G|--0---------2----------------2-------------2--------|
D|--2---------3----------------2-------------3--------|
A|--3---------3----------------0-------------3--------|
E|------------1------------------------------1--------|

'Cause I know I'm nothing without You
e|-------------------------------------------------------------|
B|-----1----------3-----------1--------------------------------|
G|-----0----------0-----------2--------------------------------|
D|-----2----------0-----------3--3-3--3--3-3--3--3-3--3--3-3---|
A|-----3----------2-----------3--3-3--3--3-3--3--3-3--3--3-3---|
E|----------------3-----------1--1-1--1--1-1--1--1-1--1--1-1---|
                                 ......................

Repeat the Chorus 2 rhythm here

[Outro] Repeat the rhythm guitar for the first part of the Bridge under this
e|------------------------------------------|
B|------------------------------------------|
G|--12-12-12-12-9-12-16-16-16-16-12-16-20~--|
D|------------------------------------------|
A|------------------------------------------|
E|------------------------------------------|

Really a great song, hope it's a blessing. :)
            
Submit corrections

comments powered by Disqus
↑ Back to top | Sanctus Real Tabs for Change Me. Lyrics for acoustic guitar and electric guitar. Tablatures and chords are parodies/interpretations of the original songs. You may use it for private study, scholarship, research or language learning purposes only