» » »

Sanctus Real, Alone Tabs (ver.2)

Artists:  A B C D E F G H I J K L M N O P Q R S T U V W X Y Z # 

Alone Tabs (ver.2)

Sanctus Real Tabs
 Rating:
3.6/5 (5 votes)
Alone lessons Tabs too difficult? Try these video lessons and learn fast
                
Intro 2x
E|--------------------------------|
B|--------------------------------|
G|-----4-----4-4--------4---------|
D|-----4-----4-4--------4-----4-4-|
A|-2-2-2-2-2-2-2----2-2-2-2-2-4-4-|
E|-0-0---0-0--------0-0---0-0-2-2-|

E|----------------------------------|
B|----------------------------------|
G|-----4-----4-4--------4-----------|
D|-----4-----4-4--------4-----4-4-4-|
A|-2-2-2-2-2-2-2----2-2-2-2-2-4-4-4-|
E|-0-0---0-0--------0-0---0-0-2-2-2-|

E|---------------------------------------------------|
B|---------------------------------------------------|
G|--------------11-----------------------------------|
D|----------9---11-9-9-11--9-4-4-4-4-4-4-4-4-4-4-4-4-|
A|-2-2----2-9----9-9-9-11--9-4-4-4-4-4-4-4-4-4-4-4-4-|
E|-0-0----0-7-0----7-7--9--7-2-2-2-2-2-2-2-2-2-2-2-2-|

E|----------------------------------------------------|
B|----------------------------------------------------|
G|--------------11------------------------------------|
D|----------9---11-9-9-11-9-4-4-4-4-4-4-4-------------|
A|-2-2----2-9----9-9-9-11-9-4-4-4-4-4-4-4-x-x-x-x-x-x-|
E|-0-0----0-7-0----7-7-9--7-2-2-2-2-2-2-2-x-x-x-x-x-x-|

Verse
E|-------------------------------------------------------------------|
B|-------------------------------------------------------------------|
G|-------------------------------------------------------------------|
D|------------------4-4-4-4-4-4-4-44---------------------------------|
A|-2----2-2-2-2-2-2-2-2-2-2-2-2-2-22-4-4-4-6-6-6-4-4-4-6-6-6-4-4-4---|
E|-0----0-0-0-0-0-0------------------2-2-2-4-4-4-2-2-2-4-4-4-2-2-2---|
Pm.[-----------------------------------------------------------------|

E|----------------------------------------------------------------------|
B|----------------------------------------------------------------------|
G|----------------------------------------------------------------------|
D|--------------------4-4-4-4-4-4-4-44----------------------------------|
A|-22-2-2-2-2-2-2-2-2-2-2-2-2-2-2-2-22-4-4-4-6-6-6-4-4-4-6-6-6----4-4---|
E|-00-0-0-0-0-0-0-0-0------------------2-2-2-4-4-4-2-2-2-4-4-4----2-2---|
Pm.[--------------------------------------------------------------------|

E|-------------------------------------------------------------------|
B|-------------------------------------------------------------------|
G|-------------------------------------------------------------------|
D|------------------4-4-4-4-4-4-4-44---------------------------------|
A|-2----2-2-2-2-2-2-2-2-2-2-2-2-2-22-4-4-4-6-6-6-4-4-4-6-6-6-4-4-4---|
E|-0----0-0-0-0-0-0------------------2-2-2-4-4-4-2-2-2-4-4-4-2-2-2---|
Pm.[-----------------------------------------------------------------|

E|------------------------------------------------------------|
B|------------------------------------------------------------|
G|------------------------------------------------------------|
D|--------------------4-4-4-4-4-4-4-44------------------------|
A|-22-2-2-2-2-2-2-2-2-2-2-2-2-2-2-2-22-4-4-4-4-4-4-4-4----4---|
E|-00-0-0-0-0-0-0-0-0------------------2-2-2-2-2-2-2-2----2---|
Pm.[----------------------------------------------------------|

E|---------|
B|---------|
G|---------|
D|-9-9-8-7-|
A|-9-9-8-7-|
E|-7-7-6-5-|

Chorus 2x
E|----------------------------------------------------------------|
B|----------------------------------------------------------------|
G|-----------------4----4----4-4-4----------------------6-8-6-4-4-|
D|-----------------4----4----4-4-4-4----4----4-4-4-4----6-8-6-4-4-|
A|-2----2----2-2-2-2----2----2-2-2-4----4----4-4-4-4----4-6-4-2-2-|
E|-0----0----0-0-0-----------------2----2----2-2-2-2--------------|

E|--------------------------------------------------------------------|
B|--------------------------------------------------------------------|
G|-----------------4----4----4-4-4------------------------------------|
D|-----------------4----4----4-4-4-6----6----6-6-6----4----4----4-4-4-|
A|-2----2----2-2-2-2----2----2-2-2-6----6----6-6-6----4----4----4-4-4-|
E|-0----0----0-0-0-----------------4----4----4-4-4----2----2----2-2-2-|

E|----------------------------------------------------|
B|----------------------------------------------------|
G|--------------11------------------------------------|
D|----------9---11-9-9-11-9-4-4-4-4-4-4-4-------------|
A|-2-2----2-9----9-9-9-11-9-4-4-4-4-4-4-4-x-x-x-x-x-x-|
E|-0-0----0-7-0----7-7-9--7-2-2-2-2-2-2-2-x-x-x-x-x-x-|

Verse

Chorus

E|-------------------------------------------------------------------|
B|-------------------------------------------------------------------|
G|-------------------------------------------------------------------|
D|---------------------------------9-9-9-9-9-9-9-9-8-8-8-8-6-6-6-6---|
A|-2-2-2-2-2-2-2-2-2-2-2-2-2-2-2-2-9-9-9-9-9-9-9-9-8-8-8-8-6-6-6-6---|
E|-0-0-0-0-0-0-0-0-0-0-0-0-0-0-0-0-7-7-7-7-7-7-7-7-6-6-6-6-4-4-4-4---|
Pm.[-----------------------------------------------------------------|

E|---------------------------------------------------------------------------|
B|---------------------------------------------------------------------------|
G|---------------------------------------------------------------------------|
D|---------------------------------9-9-9-9-9-9-9-9-11-11-11-11-13-13-13-13---|
A|-2-2-2-2-2-2-2-2-2-2-2-2-2-2-2-2-9-9-9-9-9-9-9-9-11-11-11-11-13-13-13-13---|
E|-0-0-0-0-0-0-0-0-0-0-0-0-0-0-0-0-7-7-7-7-7-7-7-7-9--9--9--9--11-11-11-11---|
Pm.[-------------------------------------------------------------------------|

E|-------------------------------------------------------------------|
B|-------------------------------------------------------------------|
G|-------------------------------------------------------------------|
D|---------------------------------9-9-9-9-9-9-9-9-8-8-8-8-6-6-6-6---|
A|-2-2-2-2-2-2-2-2-2-2-2-2-2-2-2-2-9-9-9-9-9-9-9-9-8-8-8-8-6-6-6-6---|
E|-0-0-0-0-0-0-0-0-0-0-0-0-0-0-0-0-7-7-7-7-7-7-7-7-6-6-6-6-4-4-4-4---|
Pm.[-----------------------------------------------------------------|

E|-------------------------------------------------------------------------|
B|-------------------------------------------------------------------------|
G|-------------------------------------------------------------------------|
D|---------------------------------9-9-9-9-9-9-9-9-11-11-11-11-13-13-13-13-|
A|-2-2-2-2-2-2-2-2-2-2-2-2-2-2-2-2-9-9-9-9-9-9-9-9-11-11-11-11-13-13-13-13-|
E|-0-0-0-0-0-0-0-0-0-0-0-0-0-0-0-0-7-7-7-7-7-7-7-7-9--9--9--9--11-11-11-11-|

E|----------------------------------------|
B|----------------------------------------|
G|---------------11-----------------------|
D|----------9----11-9-9-11-9-4------------|
A|-2-2----2-9----9--9-9-11-9-4--------x-x-|
E|-0-0----0-7-0-----7-7--9-7-2--------x-x-|

Chorus

Outro fades out
E|-------------------------------------------------|
B|-------------------------------------------------|
G|-------------------------------------------------|
D|-------------------------------------------------|
A|-2-2-2-2-2-2-2-2-6-6-6-6-6-6-6-6-4-4-4-4-4-4-4-4-|
E|-0-0-0-0-0-0-0-0-4-4-4-4-4-4-4-4-2-2-2-2-2-2-2-2-|
            
Submit corrections

comments powered by Disqus
↑ Back to top | Sanctus Real Tabs for Alone. Lyrics for acoustic guitar and electric guitar. Tablatures and chords are parodies/interpretations of the original songs. You may use it for private study, scholarship, research or language learning purposes only