» » »

Sanctus Real, Alone Bass tabs (ver.1)

Artists:  A B C D E F G H I J K L M N O P Q R S T U V W X Y Z # 

Alone Bass tabs (ver.1)

Sanctus Real Tabs
 Rating:
4.4/5 (7 votes)
Alone lessons Tabs too difficult? Try these video lessons and learn fast
                
           Sanctus Real - Alone

Intro 1 (play 2 times)
G|--------------------------------------|
D|--------------------------------------|
A|--2---2-2----2----------2-2----2------|
E|00-00------00--002-2—00------00--00222| 

intro 2(play 2 times)[guitar solo]
g|------------------------------------|
d|----------4-------------------------|
a|------------2-2h4p2-----------------|
E|0-0-4h7p4-----------2-2-2-22-22-2-2-|

on the 2nd time, come in after the 2nd "2h4p2"
g|----------------------------------------------|
d|----------------------------------------------|
a|------------------------2-2-222---------------|
E|2--2-2-22-22-2--0-0-000---------2-2-2222-22222|
                                           
Verse 1
g|---------------------------------------|
d|---------------------------------------|
a|---------22222222----------------------|
E|0-000000----------2222-444-222-444-2222|
    
g|---------------------------------------|
d|---------------------------------------|
a|---------22222222----------------------|
E|00000000----------2222-444-222-444-2*2*|
  
g|---------------------------------------|
d|---------------------------------------|
a|---------22222222----------------------|
E|0-000000----------2222-444-222-444-2222|
    
g|------------------------------------|
d|------------------------------------|
a|----------22222222------------2*2p1-|
E|000000000----------222222222*------4|
  

chorus (play twice)
g|-------------------------------|
d|-------------------------------|
a|--------2-2-2-2----------------|
E|0-0-0-0---------2-2-2-2-2-2-2-2|

g|-------------------------------|
d|-------------------------------|
a|--------2-2-2-2----------------|
E|0-0-0-0---------4-4-4-4-2-2-2-2|

postchorus
same as intro2, but only play once.


verse2:
same as first verse


chorus2:
same as first chorus(this time there's no postchorus)

breakdown:
g|--------------------------------|
d|--------------------------------|
a|----------------222222221111----|
E|0000000000000000------------4444|
  
g|--------------------------------|
d|--------------------------------|
a|----------------2222222244446666|
E|0000000000000000----------------|
  
g|--------------------------------|
d|--------------------------------|
a|----------------222222221111----|
E|0000000000000000------------4444|
  
g|------------------------------------|
d|------------------------------------|
a|------------------2-2-2-2-4-4-6-6---|
E|0-0-0-0-0-0-0-0-0----------------0--|

then it goes into intro part 2 (play just once)

chorus3:
same as all the other choruses.

outro:
just play intro part one.
            
Submit corrections

comments powered by Disqus
↑ Back to top | Sanctus Real Bass for Alone. Lyrics for acoustic guitar and electric guitar. Tablatures and chords are parodies/interpretations of the original songs. You may use it for private study, scholarship, research or language learning purposes only