» » »

Sanctus Real, Alone Tabs (ver.1)

Artists:  A B C D E F G H I J K L M N O P Q R S T U V W X Y Z # 

Alone Tabs (ver.1)

Sanctus Real Tabs
 Rating:
3.5/5 (8 votes)
Alone lessons Tabs too difficult? Try these video lessons and learn fast
                -------------------------------------------------------------------------------
-------------------------------------------------------------------------------
On:6/1/2009

Tuning:Drop C# a.k.a Eb Ab Db Gb Bb Eb 

 Intro: x2 
 Eb|-------------------------------------------------------------------| 
 Bb|-------------------------------------------------------------------| 
 Gb|-------------------------------------------------------------------| 
 Db|-------------------------------------------------------------------| 
 Ab|-----3---3-3-----3-------------3-----3-3----3----------------------| 
 Eb|-1-1—1-1-----1-1—1-1-3-3-3--1-1—1-1------1-1-1-1-3-3-3-------------| 

 Riff 
 Eb|-------------------------------| 
 Bb|-------------------------------| 
 Gb|-------------------------------| 
 Db|-------------5----------5------| 
 Ab|------0h3p0----3-3h5p3--5------|
 Eb|-1-1--------------------3------|

 Verse (barre chords) 
 F C G A G A G A G
 F C G A G A FFF 
 F C G A G A G A G 
 F C G 

 Eb|--------------| 
 Bb|--------------| 
 Gb|--------------| 
 Db|--------------| 
 Ab|-3-3-2--------|
 Eb|-------3------|

 Chorus 
 F C G then Octaves 

 Eb|-------------------| 
 Bb|-------------------| 
 Gb|-7-7/-9--7/5-5-----| 
 Db|-0-0--0--0-0-0-----| 
 Ab|-5-5/-7--5/3-3-----| 
 Eb|-------------------| 

 F C A G 

 Bridge : 
 F C CaddBb A 
 F C D E F
 
 Order:

 Intro:x2
 Riff:x2
 Verse1:x1
 Chorus:x2
 Riff:x1
 Verse2:x1
 Chorus:x2
 Bridge:x3
 Chorus:x2
 Intro:x2
            
Submit corrections

comments powered by Disqus
↑ Back to top | Sanctus Real Tabs for Alone. Lyrics for acoustic guitar and electric guitar. Tablatures and chords are parodies/interpretations of the original songs. You may use it for private study, scholarship, research or language learning purposes only