>
 >
Alone

Alone Guitar Tabs

Sanctus Real - Alone chords, tabs, tablatures, lyrics

Guitar lessons | Add/correct | Request | Top 50 tabs Artists:  A B C D E F G H I J K L M N O P Q R S T U V W X Y Z 0-9

Alone Guitar Tabs – Sanctus Real

CD, Sheet music, Poster

Do you like Alone? Share with your friends now
Bass TabsTabsTabs v2Tabs v3
-------------------------------------------------------------------------------
-------------------------------------------------------------------------------
On:6/1/2009

Tuning:Drop C# a.k.a Eb Ab Db Gb Bb Eb 

 Intro: x2 
 Eb|-------------------------------------------------------------------| 
 Bb|-------------------------------------------------------------------| 
 Gb|-------------------------------------------------------------------| 
 Db|-------------------------------------------------------------------| 
 Ab|-----3---3-3-----3-------------3-----3-3----3----------------------| 
 Eb|-1-11-1-----1-11-1-3-3-3--1-11-1------1-1-1-1-3-3-3-------------| 

 Riff 
 Eb|-------------------------------| 
 Bb|-------------------------------| 
 Gb|-------------------------------| 
 Db|-------------5----------5------| 
 Ab|------0h3p0----3-3h5p3--5------|
 Eb|-1-1--------------------3------|

 Verse (barre chords) 
 F C G A G A G A G
 F C G A G A FFF 
 F C G A G A G A G 
 F C G 

 Eb|--------------| 
 Bb|--------------| 
 Gb|--------------| 
 Db|--------------| 
 Ab|-3-3-2--------|
 Eb|-------3------|

 Chorus 
 F C G then Octaves 

 Eb|-------------------| 
 Bb|-------------------| 
 Gb|-7-7/-9--7/5-5-----| 
 Db|-0-0--0--0-0-0-----| 
 Ab|-5-5/-7--5/3-3-----| 
 Eb|-------------------| 

 F C A G 

 Bridge : 
 F C CaddBb A 
 F C D E F
 
 Order:

 Intro:x2
 Riff:x2
 Verse1:x1
 Chorus:x2
 Riff:x1
 Verse2:x1
 Chorus:x2
 Bridge:x3
 Chorus:x2
 Intro:x2





Comments


Popular Sanctus Real tabs & chords
Everything About You Bass Tabs
Eloquent Chords
The Way The World Turns Chords
Eloquent Tabs
Fly Tabs
I Love You Tabs
Lead Me Tabs
Dear Heart Ukulele
Shining Ukulele
Things Like You 2 Ukulele


Song lyrics



↑ Back to top | Tablatures and chords are parodies/interpretations of the original songs. You may use it for private study, scholarship, research or language learning purposes only
© 2014 AZChords.com Contact us | Privacy policy | DMCA | Add/correct tabs | Request tabs | Top 50 tabs