» » »

All I Want Bass tabs (ver.1)

Artists:  A B C D E F G H I J K L M N O P Q R S T U V W X Y Z # 

All I Want Bass tabs (ver.1)

Sanctus Real
Rating:
0/5 (0 votes)

Hard to play? Try these video lessons and learn fast.
                 tuning- Db Ab Db Gb


      intro
      Gb----------------------------------------------------------------------|
      Db----------------------------------------------------------------------|
      Ab--22222222--------2222------------------------------------------------|
      Db----------00000000------0-00-2-22-555---------------------------------|

      verse
      Gb----------------------------------------------------------------------|
      Db----------------------------------------------------------------------|
      Ab-222-222-------------222-222-------5b---------------------------------|
      Db---------00-00-12b-twelve----00-00------------------------------------|

      pre-chorus
      Gb----------------------------------------------------------------------|
      Db----------------------------------------------------------------------|
      Ab-0-000----------------------------------------------------------------|
      Db-------5--5-----------------------------------------------------------|

      chorus
      Gb------------------------------------------------------------------|
      Db------------------------------------------------------------------|   x2
      Ab----2-0-000-------------------------------------------------------|
      Db-0~---------2-22-5-55---------------------------------------------|

      pre-verse
      Gb-----------------------------------------------------------------------|
      D------------------------------------------------------------------------|
      Ab-----------------------------------------------------------------------|
      Db-7h9-7h9-7h9-7h999----------------12sL--after-guitar-riff--------------|

      verse2
      Gb----------------------------------------------------------------------|
      Db----------------------------------------------------------------------|
      Ab-222-222-----------222-222-------5b-----------------------------------|
      Db---------00-00-12b---------00-00--------------------------------------|

      pre-chorus
      Gb----------------------------------------------------------------------|
      Db----------------------------------------------------------------------|
      Ab-0-000----------------------------------------------------------------|
      Db-------5-5------------------------------------------------------------|

      chorus2
      Gb------------------------------------------------------/
      Db------------------------------------------------------/   x2
      Ab----2-0-000-------------------------------------------/
      Db-0~---------2-22-5-55---------------------------------/

      bridge
      Gb----------------------------------------------------------------------|
      Db----------------------------------tens--------------------------------|
      Ab-22222222-55555555-77777777-1010101010101010--------------------------|
      Db----------------------------------------------------------------------|

      Gb----------------------------------------------------------------------|
      Db----------------------------------------------------------------------|
      Ab-22222222-55555555-77777777-10101010101010101010101010101010----------|
      Db----------------------------------------------------------------------|

      chorus3
      Gb----------------------------------------------------------------------|
      Db----------------------------------------------------------------------|
      Ab----0~~----------------2-0-000----------------------------------------|
      Db-0~~----2-22-5-55---0~---------2-22-5-55------------------------------|

      ending
      Gb-----------------------------------------------------------------------|
      Db-----------------------------------------------------------------------|
      Ab-------00-00--33333333------------------00-00--33333333-10101010x2-----|
      Db-00-00-----------------55555555---00-00---------------------------0~~~-|
            
Hard to play? Try these video lessons and learn fast. | Correct




comments powered by Disqus
↑ Back to top | Tablatures and chords are parodies/interpretations of the original songs. You may use it for private study, scholarship, research or language learning purposes only