» » »

Oisitko Tabs (ver.1)

Artists:  A B C D E F G H I J K L M N O P Q R S T U V W X Y Z # 

Oisitko Tabs (ver.1)

Samuli Edelmann
Rating:
0/5 (0 votes)

Hard to play? Try these video lessons and learn fast.
                -------------------------------------------------------------------------
OISITKO – Samuli Edelmann
-------------------------------------------------------------------------

Standard tuning

INTRO
   D              E7/D           Dsus2#5        D       D/C#     Bm
e|-------2--------------0--------------0--------------2-------2----------|
B|-----3---3----------3---3----------3---3----------3-------3----------3-|
G|---2-------2------1-------1------3-------3------2-------2----------4---|
D|-0-----------0--0-----------0--0-----------0--0------------------4-----|
A|------------------------------------------------------4--------2-------|
E|-----------------------------------------------------------------------|
            G                A7sus4          A7
e|-2----------------3----------------0------------|
B|---3------------3---3------------3---3-----0h2--|
G|-----4--------0-------0--------0-------0---0----|
D|-------4----0-----------0----2-----------2------|
A|---------------------------0--------------------|
E|----------3-------------------------------------|

VERSE1
   G        A7                       Bm                      Bm/A
e|------------------0------------------------2---------------------------|
B|---3------------2---2-------2------------3---3-----------3-------3-----|
G|-----0--------0-------0-------0--------4---------------4-------4-------|
D|-------0----2-----------2-------2----4-----------4---4-------4---------|
A|----------0---------------0--------2---------------2-------0-----------|
E|-3---------------------------------------------2-----------------------|
   G        A7*                      Bm                      Bm/A
e|------------------3------------------------2---------------2-----------|
B|---3------------2---2-------2------------3---3-----------3-------3-----|
G|-----0--------0-------0-------0--------4---------------4-------4-------|
D|-------0----2-----------2-------2----4-----------4---4-------4---------|
A|----------0---------------0--------2---------------2-------0-----------|
E|-3---------------------------------------------2-----------------------|
   G         A7*                     Bm                      Bm/A
e|-----3----0-------3------------------------2---------------------------|
B|-------3--------2---2-------2------------3---4-----------3-------3-----|
G|--------------0-------0-------0--------4---------------4-------4-------|
D|---0--------2-----------2-------2----4-----------4---4-------4---------|
A|----------0---------------0--------2---------------2-------0-----------|
E|-3---------------------------------------------2-----------------------|
   G        A7*                      Bm                         Bm/A
e|------------------3------------------------2---------------2---2-------|
B|---3------------2---2-------2------------3---3-----------3-----3-------|
G|-----0--------0-------0-------0--------4---------------4-------4-------|
D|-------0----2-----------2-------2----4-----------4---4---------4-------|
A|----------0---------------0--------2---------------2-----------0-------|
E|-3---------------------------------------------2-----------------------|

CHORUS
   Dadd4/G          A6sus2           Bm                       Bm/A
e|---------2----------------2----------------2------------------2---0----|
B|-------3---3------------0---0------------3---3------2---3-----3-----3--|
G|-----0-------0--------2-------2--------4-------4------4---4---4--------|
D|---0-----------0----2-----------2----4-----------4------------4-4------|
A|------------------0----------------2--------------------------0--------|
E|-3---------------------------------------------------------------------|
   Dadd4/G       Asus2 A         D               D/C               G
e|---------2--------0-0----------------2----------------2----------------|
B|-------3---3------0-2-3---2--------3-----3----------3-----3------------|
G|-----0-------0----2-2---2---2----2---------2------2---------2--------0-|
D|---0-----------0--2-2----------0-------0-----0---------------------0---|
A|------------------0-0---------------------------3-------3-----3--------|
E|-3---------------------------------------------------------------3-----|
           Asus4 A
e|---3--------0--0----|
B|-3---3------3--2----|
G|-------0----2--2----|
D|---------0--2--2----|
A|------------0--0----|
E|--------------------|

INTRO
D  E7/D  Dsus2#5  D  D/C#  Bm  G  A7sus4   A7

VERSE1
            G  A7               Bm
Kun aika on täysi, läpikuultava kuu
  Bm/A      G  A7*                 Bm
Ja aaltojen leikki kasvoille heijastuu
    Bm/A         G  A7*                 Bm
Ilta käy huoneen poikki, kynttilän sammutan
  Bm/A     G  A7*               Bm...
Ja ikkunan ruutuun mietteeni asetan

CHORUS
...Bm/A    Dadd4/G        A6sus2          Bm
     Oisitko hän, oisitko tuuli, jonka mä perhosen siivillä kuulin?
Bm/A  Dadd4/G        Asus2  A     D         D/C
Oisitko hän, oisitko myrskytuikku loistava?
         G         Asus4  A    D...
Oisitko hän, oisitko polku erämaassa?

INTERLUDE (intro)
...E7/D  Dsus2#5  D  D/C#  Bm  G  A7sus4   A7

VERSE2
             G   A7                Bm
Kun levähdän täällä, uni käy huoneeseen
   Bm/A     G  A7             Bm
Ja enkelten siivet seiniä hivelee
   Bm/A     G  A7                  Bm
Ja turhiksi käyvät, sanat vain helinää
    Bm/A     G   A7                  Bm...
Kun lepäämme täällä, olennainen vain jää

CHORUS
...Bm/A    Dadd4/G        A6sus2          Bm
     Oisitko hän, oisitko tuuli, jonka mä perhosen siivillä kuulin?
Bm/A  Dadd4/G        Asus2  A     D         D/C
Oisitko hän, oisitko myrskytuikku loistava?
         G         Asus4  A    D...
Oisitko hän, oisitko polku erämaassa?

INTERLUDE (intro)
...E7/D  Dsus2#5  D  D/C#  Bm  G  A7sus4   A7

OUTRO
             G   A7                  D
Kun lepäämme täällä, olennainen vain jää.

=========================================================================
            
Hard to play? Try these video lessons and learn fast. | Correct




comments powered by Disqus
↑ Back to top | Tablatures and chords are parodies/interpretations of the original songs. You may use it for private study, scholarship, research or language learning purposes only