>
 >
21st Century Life

21st Century Life Bass Tabs

Sam Sparro - 21st Century Life chords, tabs, tablatures, lyrics

Guitar lessons | Add/correct | Request | Top 50 tabs Artists:  A B C D E F G H I J K L M N O P Q R S T U V W X Y Z 0-9

21st Century Life Bass Tabs – Sam Sparro

CD, Sheet music, Poster

Do you like 21st Century Life? Share with your friends now
Bass Tabs
---------------------------------------------------------------------------
---------------------------------------------------------------------------

Basstab by Gustavo02

Some fills aren't 100% like the original, I write simplificated fills here and there. 
The roots notes are 100% right, i believe. I hope anyone find it useful.
This song is very cool to play once you learn and practice it.

s = slap note

if you can't play main riff at all, here is another sugestion:

G|----------------3---4---5-------| |----------------3-----------0---|
D|--------------------------------| |3---3-------------5-3----33-----|
A|3---3---3-----------------------| |--------------------------------| 
E|--------------------------------| |--------------------------------|

______________________________________________________________________

INTRO:                                                     s       s
G|----------------3---4---5-------| |----------------3-----3-------0-|
D|--------------------------------| |3---3-------------5-3---5-33-3--|
A|3---3---3-----------------------| |--------------------------------| <-x3
E|--------------------------------| |--------------------------------|

                                       s       s       s           s
G|----------------3---4---5-------| |--5-------5-------0-----------0-|
D|--------------------------------| |3-------3-------3-------5-33-3--|
A|3---3---3-----------------------| |--------------------------------| 
E|--------------------------------| |--------------------------------|


VERSES:        
"when I was a little boy..."

                                                           s       s
G|----------------3---4---5-------| |----------------3-----3-------0-|
D|--------------------------------| |3---3-------------5-3---5-33-3--|
A|3---3---3-----------------------| |--------------------------------| <-x7
E|--------------------------------| |--------------------------------|

                        s                                s      s
G|--------------------------------| |--------------------3------4----|  
D|----------------------6---------| |--------------------------------| 
A|--------------------------------| |----------------1-------2-------|
E|4---4--44----4----------4-------| |3-----3----3--------------------|


CHORUS:  x2
                        s
G|----------------------5---------| |--------------------------------|  
D|--------------------------------| |--------------------------------| 
A|3---3---3-------3---3-----------| |--------------------------------|
E|--------------------------------| |1---1-----1-----1-1--1--3---3---|

                      s                                  s
G|--------------------------------| |--------------------3-----------|  
D|--------------------6-----------| |--------------------------------| 
A|--------------------------------| |----------------1-------1---2---|
E|4---4-----4-----4-------4-------| |3---3-----3---------------------|


                        s
G|----------------------5---------| |--------------------------------|  
D|--------------------------------| |--------------------------------| 
A|3---3---3-------3---3-----------| |--------------------------------|
E|--------------------------------| |1---1-----1-----1-1--1--3---3---|

                      s                                  s       s
G|--------------------------------| |--------------------3-------4---|  
D|--------------------6-----------| |--------------------------------| 
A|--------------------------------| |----------------1-------2-------|
E|4---4-----4-----4-------4-------| |3---3-----3---------------------|


VERSES 2:

                                                           s       s
G|----------------3---4---5-------| |----------------3-----3-------0-|
D|--------------------------------| |3---3-------------5-3---5-33-3--|
A|3---3---3-----------------------| |--------------------------------| <-x4
E|--------------------------------| |--------------------------------|

                                                           s
G|----------------3---4---5-------| |----------------3-----3---------|
D|--------------------------------| |3---3-------------5-3-----------|
A|3---3---3-----------------------| |------------------------3---6---|
E|--------------------------------| |--------------------------6-----|
                                                           s       s 
G|------------------------3-4-5---| |----------------3-----3-------0-|  
D|--------------1-3-1-3-5---------| |------------------5-3---5-33-3--| 
A|----------1-3-------------------| |--oops--------------------------|
E|1-2-3-1-3-----------------------| |--------------------------------|

"because i never alone..."                                 s       s
G|----------------3---4---5-------| |----------------3-----3-------0-|
D|--------------------------------| |3---3-------------5-3---5-33-3--|
A|3---3---3-----------------------| |--------------------------------| <-x4
E|--------------------------------| |--------------------------------|

                        s                                s      s
G|--------------------------------| |--------------------3------4----|  
D|----------------------6---------| |--------------------------------| 
A|--------------------------------| |----------------1-------2-------|
E|4---4--44----4----------4-------| |3-----3----3--------------------|


----------------
CHORUS x2 again
---------------

PRE-VERSES / VERSES:

G|----------------3---4---5-------| |----------------3-----3-------0-|
D|--------------------------------| |3---3-------------5-3---5-33-3--|
A|3---3---3-----------------------| |--------------------------------| <-x7
E|--------------------------------| |--------------------------------|

                        s                                s      s
G|--------------------------------| |--------------------3------4----|  
D|----------------------6---------| |--------------------------------| 
A|--------------------------------| |----------------1-------2-------|
E|4---4--44----4----------4-------| |3-----3----3--------------------|


VERSES B: 
(at 02:58 more or less)
the exactly rhythm is a little hard ro write, try to play attention on
the bass to get it. But basically is the same thing as the chorus.


G|--------------------------------| |--------------------------------|
D|--------------------------------| |--------------------------------|
A|3---3---3-------1----2----3-----| |--------------------------------| 
E|------------------------------1-| |---1---1---------1-1---1---3--4-|

G|--------------------------------| |--------------------------------|  
D|--------------------------------| |--------------------------------| 
A|--------------------------------| |----------------1---1---2---2---|
E|-4-----4-----4------------4--4--| |3-----3-----3-------------------|


G|--------------------------------| |--------------------------------|
D|--------------------------------| |--------------------------------|
A|3---3---3-------1----2----3-----| |--------------------------------| 
E|------------------------------1-| |---1---1---------1-1---1---3--4-|

G|--------------------------------| |--------------------------------|  
D|--------------------------------| |--------------------------------| 
A|--------------------------------| |--------------------------------|
E|-4-----4-----4------------4--4--| |3---3---3---3---3---3---3---3---|

----------------
CHORUS x2 again
---------------
and then you keep playing the chorus bassline after the small break at 03:43

Good luck





Comments


Popular Sam Sparro tabs & chords
Black Gold Bass Tabs
Black And Gold Chords
Black And Gold 1 Chords
Black And Gold 2 Chords
Black And Gold 3 Chords
Black And Gold 4 Chords
Black And Gold 5 Chords
Black And Gold 7 Chords
Black And Gold Tabs
Black And Gold 1 Tabs


Song lyrics



↑ Back to top | Tablatures and chords are parodies/interpretations of the original songs. You may use it for private study, scholarship, research or language learning purposes only
© 2014 AZChords.com Contact us | Privacy policy | DMCA | Add/correct tabs | Request tabs | Top 50 tabs