>
 >
Katzenloewenseelenhund

Katzenloewenseelenhund Guitar Tabs

Samsas Traum - Katzenloewenseelenhund chords, tabs, tablatures, lyrics

Guitar lessons | Add/correct | Request | Top 50 tabs Artists:  A B C D E F G H I J K L M N O P Q R S T U V W X Y Z 0-9

Katzenloewenseelenhund Guitar Tabs – Samsas Traum

CD, Sheet music, Poster

Do you like Katzenloewenseelenhund? Share with your friends now
Tabs
Katzenl÷wenseelenhund


Duration Legend
---------------
H - half
Q - quarter 
E - 8th

 Q=100
 4/4
  
 Intro

 RIFF I
    E E E E E E E E   E E E E E E E E   E E E E E E E E   E E E E E E E E  
||--5-----5-----5---|-8-----8-----8---|-7-----7-----7---|-5-----5-----5----||
||o---5-----5-----5-|---5-----5-----5-|---5-----5-----5-|---5-----5-----5-o||
||------5-----5-----|-----5-----5-----|-----5-----5-----|-----5-----5------||
||------------------|-----------------|-----------------|------------------||x4
||o-----------------|-----------------|-----------------|-----------------o||
||------------------|-----------------|-----------------|------------------||


 RIFF II
 
 (00:45)
  E E E E E E E E   E E E E E E E E   E E E E E E E E   E E E E E E E E
|-5-----5-----5---|-8-----8-----8---|-5-----5-----5---|-8-----8-----8---|
|---6-----6-----6-|---6-----6-----6-|---6-----6-----6-|---6-----6-----6-|
|-----7-----7-----|-----7-----7-----|-----7-----7-----|-----7-----7-----|
|-----------------|-----------------|-----------------|-----------------|
|-----------------|-----------------|-----------------|-----------------|
|-----------------|-----------------|-----------------|-----------------|


  E E E E E E E E   E E E E E E E E   E E E E E E E E   E E E E E E E E
|-5-----5-----5---|-8-----8-----8---|-7-----7-----7---|-5-----5-----5---|
|---5-----5-----5-|---5-----5-----5-|---5-----5-----5-|---5-----5-----5-|
|-----5-----5-----|-----5-----5-----|-----5-----5-----|-----5-----5-----|
|-----------------|-----------------|-----------------|-----------------|
|-----------------|-----------------|-----------------|-----------------|
|-----------------|-----------------|-----------------|-----------------|


 RIFF III 

 (1:04)
  E  E E E E E E E   E  E E E E E E E   E E E E E E E E   E E  E  Q   E E E
|-1------1-----1---|-3------1-----1---|-1-----1-----1---|-3-------1---1-----|
|----3-----3-----3-|----3-----3-----3-|---3-----3-----3-|---3-----------3-1-|
|------2-----2-----|------2-----2-----|-----2-----2-----|------2------------|
|------------------|------------------|-----------------|-------------------|
|------------------|------------------|-----------------|-------------------|
|------------------|------------------|-----------------|-------------------|
|
| Gtr II
| H.           Q     H.           Q     Q   Q   Q   Q     Q   +E  E Q   E E
|------------------|-5----------------|-----------------|-------------------|
|-6------------8---|--------------8---|-8---6---6---5---|---------5-----5-6-|
|------------------|------------------|-----------------|-7---(7)---7-------|
|------------------|------------------|-----------------|-------------------|<--- Flute!
|------------------|------------------|-----------------|-------------------|
|------------------|------------------|-----------------|-------------------|


  E  E E E E E E E   E  E E E E E E E   E E E E E E E E   E E E E H
|-0------0-----0---|-3------0-----0---|-0-----0-----0---|-3-----0------|
|----1-----1-----1-|----1-----1-----1-|---1-----1-----1-|---1-----1----|
|------2-----2-----|------2-----2-----|-----2-----2-----|-----2--------|
|------------------|------------------|-----------------|--------------|
|------------------|------------------|-----------------|--------------|
|------------------|------------------|-----------------|--------------|
|
| H.           Q     H.           Q     Q   Q   Q   Q     Q
|------------------|------------------|-----------------|--------------|
|-5------------6---|-5------------6---|-6---5---5-------|-5------------|
|------------------|------------------|-------------7---|--------------|
|------------------|------------------|-----------------|--------------|
|------------------|------------------|-----------------|--------------|
|------------------|------------------|-----------------|--------------|


  E  E E E E E E E   E  E E E E E E E   E E E E E E E E   E E  E  E H
|-1------1-----1---|-3------1-----1---|-1-----1-----1---|-3-------1--------|
|----3-----3-----3-|----3-----3-----3-|---3-----3-----3-|---3-------3------|
|------2-----2-----|------2-----2-----|-----2-----2-----|------2-----------|
|------------------|------------------|-----------------|------------------|
|------------------|------------------|-----------------|------------------|
|------------------|------------------|-----------------|------------------|
|
| H.           Q     H.           Q     Q   Q   Q   Q     Q   +E  E Q  E E
|------------------|-5----------------|-----------------|------------------|
|-6------------8---|--------------8---|-8---6---6---5---|---------5----5-6-|
|------------------|------------------|-----------------|-7---(7)---7------|
|------------------|------------------|-----------------|------------------|
|------------------|------------------|-----------------|------------------|
|------------------|------------------|-----------------|------------------|


  E  E E E E E E E   E  E E E E E E E   +Q.    E E E E E    W
|-0------0-----0---|-3------0-----0---|----------3-------|-^3----|
|----1-----1-----1-|----1-----1-----1-|-(1)----3---3-1-0-|-^0----|
|------2-----2-----|------2-----2-----|------------------|-^0----|
|------------------|------------------|------------------|-------|
|------------------|------------------|------------------|-------|
|------------------|------------------|------------------|-------|
|
| H.           Q     H.           Q      Q   Q   Q   Q      W
|------------------|--------------5---|--5-----------5---|-------|
|-5------------6---|-5----------------|------8---8-------|--8----|
|------------------|------------------|------------------|-------|
|------------------|------------------|------------------|-------|
|------------------|------------------|------------------|-------|
|------------------|------------------|------------------|-------|


  E E E E E E E E   E E E E E E E E   E E E E E E E E   E E E E E E E E
|-5-----5-----5---|-8-----8-----8---|-7-----7-----7---|-5-----5-----5---|
|---5-----5-----5-|---5-----5-----5-|---5-----5-----5-|---5-----5-----5-|
|-----5-----5-----|-----5-----5-----|-----5-----5-----|-----5-----5-----|
|-----------------|-----------------|-----------------|-----------------|
|-----------------|-----------------|-----------------|-----------------|
|-----------------|-----------------|-----------------|-----------------|


  E E E E E E E E   E E E E E E E E   E E E E E E E E   E E E E +H
|-5-----5-----5---|-8-----8-----8---|-7-----7-----7---|-5-----5-(5)----|
|---5-----5-----5-|---5-----5-----5-|---5-----5-----5-|---5------------|
|-----5-----5-----|-----5-----5-----|-----5-----5-----|-----5----------|
|-----------------|-----------------|-----------------|----------------|
|-----------------|-----------------|-----------------|----------------|
|-----------------|-----------------|-----------------|----------------|


 Verse I (02:02)

 RIFF I |x2

 Verse II (02:22)

 Riff II|x1
 Riff I |x1

 Verse III (02:42)

  E E  E  E  E  E E E    E  E E  E E E  E E
|-1-------1-------1---|--3-------1------1---|
|---3--------3------3-|-----3------3------3-|
|------2--------2-----|-------2------2------|
|---------------------|---------------------|
|---------------------|---------------------|
|---------------------|---------------------|


  E E  E  E  E  E E  E     E   E E  E H
|-1-------1-------1----|---3--------1----|
|---3--------3-------3-|-------3------3--|
|------2--------2------|---------2-------|
|----------------------|-----------------|
|----------------------|-----------------|
|----------------------|-----------------|

  E E  E  E  E E E E    E E E  E E E E E   E E E E E E E E    E   E E E  H
|-0-------0------0---|--3------0-----0---|-0-----0-----0---|--3-------0--------|
|---1--------1-----1-|----1------1-----1-|---1-----1-----1-|------1------1-----|
|------2-------2-----|------2------2-----|-----2-----2-----|--------2----------|
|--------------------|-------------------|-----------------|-------------------|
|--------------------|-------------------|-----------------|-------------------|
|--------------------|-------------------|-----------------|-------------------|


 Verse IV (03:02)

  E E  E  E  E  E E E    E  E E  E E E  E E
|-1-------1-------1---|--3-------1------1---|
|---3--------3------3-|-----3------3------3-|
|------2--------2-----|-------2------2------|
|---------------------|---------------------|
|---------------------|---------------------|
|---------------------|---------------------|

  E E  E  E  E  E E  E     E   E E  E H
|-1-------1-------1----|---3--------1----|
|---3--------3-------3-|-------3------3--|
|------2--------2------|---------2-------|
|----------------------|-----------------|
|----------------------|-----------------|
|----------------------|-----------------|

  E E  E  E  E E E E    E E E  E E E  E E   +Q.    E E E E E    W
|-0-------0------0---|--3------0------0---|----------3-------|-^3----------|
|---1--------1-----1-|----1------1------1-|-(1)----3---3-1-0-|-^0----------|
|------2-------2-----|------2------2------|------------------|-^0----------|
|--------------------|--------------------|------------------|-------------|
|--------------------|--------------------|------------------|-------------|
|--------------------|--------------------|------------------|-------------|


 Verse V+VI + Outro (03:20)

    E E E E E E E E   E E E E E E E E   E E E E E E E E   E E E E E E E E   
||--5-----5-----5---|-8-----8-----8---|-7-----7-----7---|-5-----5-----5-----||
||o---5-----5-----5-|---5-----5-----5-|---5-----5-----5-|---5-----5-----5--o||
||------5-----5-----|-----5-----5-----|-----5-----5-----|-----5-----5-------||
||------------------|-----------------|-----------------|-------------------||x8
||o-----------------|-----------------|-----------------|------------------o||
||------------------|-----------------|-----------------|-------------------||





Comments


Popular Samsas Traum tabs & chords
Die Zrtlichkeit Der Verdammten Bass Tabs
Blut Ist In Der Waschmuschel Chords
Dein Schnster Augenblick Chords
Die Stunde Null Chords
Ein Name Im Kristall Chords
Ingwerbrot Und Nuesse Chords
K.Haos-Prinz Und Wind-Prinzessin Chords
Der Junge Lebt Im Brunnen Ukulele
Ein Foetus Wie Du Ukulele
Mohn Auf Weien Laken Ukulele


Song lyrics



↑ Back to top | Tablatures and chords are parodies/interpretations of the original songs. You may use it for private study, scholarship, research or language learning purposes only
© 2014 AZChords.com Contact us | Privacy policy | DMCA | Add/correct tabs | Request tabs | Top 50 tabs