» » »

Endstation Eden Tabs (ver.1)

Artists:  A B C D E F G H I J K L M N O P Q R S T U V W X Y Z # 

Endstation Eden Tabs (ver.1)

Samsas Traum
Rating:
5/5 (1 vote)

Hard to play? Try these video lessons and learn fast.
                Hello, this is the only tab for Endstation Eden at the moment,
here they are. 

I listened to the song and have decided that
this is how it is played. Of course, yhou can transpose notes 
if you want, it's all a matter of personal preference =P

IF SOMETHING DOESN'T SOUND RIGHT TO YOU THEN IT PROBABLY ISN'T!!!

Either that or you're not tuned =P



I play this in standard E tuning.
Plain, old, E tuning.
E.g. EADGBE


INTRO/CHORUS
E|---------------------------------------------------------|
B|---------------------------------------------------------|
G|---------------------------------------------------------|
D|-2--2--2-2-2-----------------5--5--5-5-5-----------------|
A|-0--0--0-0-0--2--2--2-2-2-2--3--3--3-3-3--5--5--5-5-5-5--|
E|--------------0--0--0-0-0-0---------------3--3--3-3-3-3--|

E|---------------------------------------------------------|
B|---------------------------------------------------------|
G|---------------------------------------------------------|
D|-2--2--2-2-2-----------------5--5--5-5-5--------7-7-7-7--|
A|-0--0--0-0-0--2--2--2-2-2-2--3--3--3-3-3--7--7--5-5-5-5--|
E|--------------0--0--0-0-0-0---------------5--5-----------|



E|-----------------|
B|-----------------|
G|-----------------|
D|-----------------|
A|-7---7---7---7---|
E|-5---5---5---5---|


VERSE
E|---------------------------------|
B|---------------------------------|
G|---------------------------------|
D|---------------------------------|
A|--7---7-7--5---5-5--2---3---3-3--|
E|--5---5-5--3---3-3--0---1---1-1--|

E|----------------------------------------|
B|----------------------------------------|
G|----------------------------------------|
D|----------------------------------------|
A|--7---7-7--5---5-5--2--2-3---3---3---3--|
E|--5---5-5--3---3-3--0--0-1---1---1---1--|

SHORT CHORUS
E|---------------------------------------------------------|
B|---------------------------------------------------------|
G|---------------------------------------------------------|
D|-2--2--2-2-2-----------------5--5--5-5-5-----------------|
A|-0--0--0-0-0--2--2--2-2-2-2--3--3--3-3-3--5--5--5-5-5-5--|
E|--------------0--0--0-0-0-0---------------3--3--3-3-3-3--|

E|---------------------------------------------------------|
B|---------------------------------------------------------|
G|---------------------------------------------------------|
D|-2--2--2-2-2-----------------5--5--5-5-5--------7-7-7-7--|
A|-0--0--0-0-0--2--2--2-2-2-2--3--3--3-3-3--7--7--5-5-5-5--|
E|--------------0--0--0-0-0-0---------------5--5-----------|

E|----------------|
B|----------------|
G|----------------|
D|----------------|
A|-7--7--7--5--7--|
E|-5--5--5--3--5--|

VERSE
E|---------------------------------|
B|---------------------------------|
G|---------------------------------|
D|---------------------------------|
A|--7---7-7--5---5-5--2---3---3-3--|
E|--5---5-5--3---3-3--0---1---1-1--|

E|----------------------------------------|
B|----------------------------------------|
G|----------------------------------------|
D|----------------------------------------|
A|--7---7-7--5---5-5--2--2-3---3---3---3--|
E|--5---5-5--3---3-3--0--0-1---1---1---1--|

CHORUS
E|---------------------------------------------------------|
B|---------------------------------------------------------|
G|---------------------------------------------------------|
D|-2--2--2-2-2-----------------5--5--5-5-5-----------------|
A|-0--0--0-0-0--2--2--2-2-2-2--3--3--3-3-3--5--5--5-5-5-5--|
E|--------------0--0--0-0-0-0---------------3--3--3-3-3-3--|

E|---------------------------------------------------------|
B|---------------------------------------------------------|
G|---------------------------------------------------------|
D|-2--2--2-2-2-----------------5--5--5-5-5--------7-7-7-7--|
A|-0--0--0-0-0--2--2--2-2-2-2--3--3--3-3-3--7--7--5-5-5-5--|
E|--------------0--0--0-0-0-0---------------5--5-----------|

E|---------------------------------------------------------|
B|---------------------------------------------------------|
G|---------------------------------------------------------|
D|-2--2--2-2-2-----------------5--5--5-5-5-----------------|
A|-0--0--0-0-0--2--2--2-2-2-2--3--3--3-3-3--5--5--5-5-5-5--|
E|--------------0--0--0-0-0-0---------------3--3--3-3-3-3--|

E|---------------------------------------------------------|
B|---------------------------------------------------------|
G|---------------------------------------------------------|
D|-2--2--2-2-2-----------------5--5--5-5-5--------7-7-7-7--|
A|-0--0--0-0-0--2--2--2-2-2-2--3--3--3-3-3--7--7--5-5-5-5--|
E|--------------0--0--0-0-0-0---------------5--5-----------|

E|------------------------|
B|------------------------|
G|------------------------|
D|------------------------|
A|-7--7--7--5--7-------7--|
E|-5--5--5--3--5-------5--|

BRIDGE
E|---------------------------|
B|---------------------------|
G|---------------------------|
D|---------------------------|
A|--7---7---7---9---10--15---|
E|--5---5---5---7---8---13---|

OUTRO CHORUS
E|---------------------------------------------------------|
B|---------------------------------------------------------|
G|---------------------------------------------------------|
D|-2--2--2-2-2-----------------5--5--5-5-5-----------------|
A|-0--0--0-0-0--2--2--2-2-2-2--3--3--3-3-3--5--5--5-5-5-5--|
E|--------------0--0--0-0-0-0---------------3--3--3-3-3-3--|

E|---------------------------------------------------------|
B|---------------------------------------------------------|
G|---------------------------------------------------------|
D|-2--2--2-2-2-----------------5--5--5-5-5--------7-7-7-7--|
A|-0--0--0-0-0--2--2--2-2-2-2--3--3--3-3-3--7--7--5-5-5-5--|
E|--------------0--0--0-0-0-0---------------5--5-----------|

E|---------------------------------------------------------|
B|---------------------------------------------------------|
G|---------------------------------------------------------|
D|-2--2--2-2-2-----------------5--5--5-5-5-----------------|
A|-0--0--0-0-0--2--2--2-2-2-2--3--3--3-3-3--5--5--5-5-5-5--|
E|--------------0--0--0-0-0-0---------------3--3--3-3-3-3--|

E|---------------------------------------------------------|
B|---------------------------------------------------------|
G|---------------------------------------------------------|
D|-2--2--2-2-2-----------------5--5--5-5-5--------7-7-7-7--|
A|-0--0--0-0-0--2--2--2-2-2-2--3--3--3-3-3--7--7--5-5-5-5--|
E|--------------0--0--0-0-0-0---------------5--5-----------|


E|---------------------------------------------------|
B|---------------------------------------------------|
G|---------------------------------------------------|
D|--------7-7-7-7----------7-7-7-7-------------------|
A|--7--7--5-5-5-5----7--7--5-5-5-5----7--7--7--5--7--|
E|--5--5-------------5--5-------------5--5--5--3--5--|


That's how it sounds to me.

I'm not entirely sure of the last chord on the break.
It's either an E or F power chord, but i reckon it's F. 
Feel free to correct me =)


I can't remember if i play it the same as i wrote here, but I
probably did...
            
Hard to play? Try these video lessons and learn fast. | Correct




comments powered by Disqus
↑ Back to top | Tablatures and chords are parodies/interpretations of the original songs. You may use it for private study, scholarship, research or language learning purposes only