>
 >
Einer Gegen Alle

Einer Gegen Alle Guitar Tabs

Samsas Traum - Einer Gegen Alle chords, tabs, tablatures, lyrics

Guitar lessons | Add/correct | Request | Top 50 tabs Artists:  A B C D E F G H I J K L M N O P Q R S T U V W X Y Z 0-9

Einer Gegen Alle Guitar Tabs – Samsas Traum

CD, Sheet music, Poster

Do you like Einer Gegen Alle? Share with your friends now
Tabs
Samsas Traum - Einer Gegen Alle

I hope i did it right. Its on of the first tabs i ever did.
And the first time i try to hear out a whole song.

Intro
     W                   W                   W                 
E||-------------------|-------------------|-------------------|
B||-------------------|-------------------|-------------------|
G||-------------------|-------------------|-------------------|
D||--2----------------|--3----------------|--5----------------|
A||--2----------------|--3----------------|--5----------------|
E||--0----------------|--1----------------|--3----------------|


  W                   W                   W                 
|-------------------|-------------------|-------------------|
|-------------------|-------------------|-------------------|
|-------------------|-------------------|-------------------|
|--3----------------|--2----------------|--3----------------|
|--3----------------|--2----------------|--3----------------|
|--1----------------|--0----------------|--1----------------|


  W                   W                 
|-------------------|-------------------|
|-------------------|-------------------|
|-------------------|-------------------|
|--5----------------|--7----------------|
|--5----------------|--7----------------|
|--3----------------|--5----------------|

Pre-Verse
  E  E  E  E  E  E  E  E     E  E  E  E  E  E  E  E   
|--------------------------|--------------------------|
|--------------------------|--------------------------|
|--------------------------|--------------------------|
|--------------------------|--------------------------|
|--5-----3--5-----6--5-----|--5-----3--5-----6--5-----|
|--------------------------|--------------------------|


  E  E  E  E  E  E  E  E     E  E  E  E  E  E  E  E   
|--------------------------|--------------------------|
|--------------------------|--------------------------|
|--------------------------|--------------------------|
|--------------------------|--------------------------|
|--5-----3--5-----6--5-----|--5-----3--5-----6--5-----|
|--------------------------|--------------------------|

Verse
  E  E  E  E  E  E  E  E     E  E  E  E  E  E  E  E   
|--------------------------|--------------------------|
|--------------------------|--------------------------|
|--------------------------|--------------------------|
|--------------------------|--------------------------|
|--5-----3--5-----6--5-----|--5-----3--5-----6--5-----|
|--------------------------|--------------------------|


  E  E  E  S S S S Q    E     E  E  E  S S S S Q    E   
|---------------------------|---------------------------|
|---------------------------|---------------------------|
|---------------------------|---------------------------|
|--x--x--3--x---x---3-------|--x--x--2--x---x---2-------|
|--x--x--3--x---x---3-------|--x--x--2--x---x---2-------|
|--x--x--1--x---x---1-------|--x--x--0--x---x---0-------|

Pre-Chorus
  W                   W                   W                 
|-------------------|-------------------|-------------------|
|-------------------|-------------------|-------------------|
|-------------------|-------------------|-------------------|
|--3----------------|--3----------------|--5----------------|
|--3----------------|--3----------------|--5----------------|
|--1----------------|--1----------------|--3----------------|


  |--------3--------|            Chorus                         
  H        H        H           E  E  E  E  E  E  E  E   
|-----------------------------|--------------------------|
|-----------------------------|--------------------------|
|-----------------------------|--------------------------|
|--5--------5--------5--------|--------------------------|
|--5--------5--------5--------|--2--2--2--2--2--2--2--2--|
|--3--------3--------3--------|--0--0--0--0--0--0--0--0--|


  E  E  E  E  E  E  E  E     E  E  E  E  E  E  E  E   
|--------------------------|--------------------------|
|--------------------------|--------------------------|
|--------------------------|--------------------------|
|--------------------------|--------------------------|
|--3--3--3--3--3--3--3--3--|--5--5--5--5--5--5--5--5--|
|--1--1--1--1--1--1--1--1--|--3--3--3--3--3--3--3--3--|


  E  E  E  E  E  E  E  E     E  E  E  E  E  E  E  E   
|--------------------------|--------------------------|
|--------------------------|--------------------------|
|--------------------------|--------------------------|
|--------------------------|--------------------------|
|--3--3--3--3--3--3--3--3--|--2--2--2--2--2--2--2--2--|
|--1--1--1--1--1--1--1--1--|--0--0--0--0--0--0--0--0--|


  E  E  E  E  E  E  E  E     E  E  E  E  E  E  E  E   
|--------------------------|--------------------------|
|--------------------------|--------------------------|
|--------------------------|--------------------------|
|--------------------------|--------------------------|
|--3--3--3--3--3--3--3--3--|--5--5--5--5--5--5--5--5--|
|--1--1--1--1--1--1--1--1--|--3--3--3--3--3--3--3--3--|

                             Bridge
  E  E  E  E  E  E  E  E     E  E  E  E  E  E  E  E   
|--------------------------|--------------------------|
|--------------------------|--------------------------|
|--------------------------|--------------------------|
|--------------------------|--2--2-----2--2-----2-----|
|--7--7--7--7--7--7--7--7--|--2--2-----2--2-----2-----|
|--5--5--5--5--5--5--5--5--|--0--0-----0--0-----0-----|


  E  E  E  E  E  E  E  E     E  E  E  E  E  E  E  E   
|--------------------------|--------------------------|
|--------------------------|--------------------------|
|--------------------------|--------------------------|
|--2--2-----2--2-----2-----|--3--3-----3--3-----3-----|
|--2--2-----2--2-----2-----|--3--3-----3--3-----3-----|
|--0--0-----0--0-----0-----|--1--1-----1--1-----1-----|


  E  E  E  E  E  E  E  E     E  E  E  E  E  E  E  E   
|--------------------------|--------------------------|
|--------------------------|--------------------------|
|--------------------------|--------------------------|
|--3--3-----3--3-----3-----|--5--5-----5--5-----5-----|
|--3--3-----3--3-----3-----|--5--5-----5--5-----5-----|
|--1--1-----1--1-----1-----|--3--3-----3--3-----1-----|


  E  E  E  E  E  E  E  E     E  E  E  E  E  E  E  E   
|--------------------------|--------------------------|
|--------------------------|--------------------------|
|--------------------------|--------------------------|
|--5--5-----5--5-----5-----|--3--3-----3--3-----3-----|
|--5--5-----5--5-----5-----|--3--3-----3--3-----3-----|
|--3--3-----3--3-----1-----|--1--1-----1--1-----1-----|


  E  E  E  E  E  E  E  E     W                 
|--------------------------|-------------------|
|--------------------------|-------------------|
|--------------------------|-------------------|
|--3--3-----3--3-----3-----|--2----------------|
|--3--3-----3--3-----3-----|--2----------------|
|--1--1-----1--1-----1-----|--0----------------|


                                           PM                  
  W                   H        H           E  H.           E   
|-------------------|--------------------|---------------------|
|-------------------|--------------------|---------------------|
|-------------------|--------------------|---------------------|
|--L----------------|--5--------3--------|-----5------------L--|
|--L----------------|--5--------3--------|-----5------------L--|
|--L----------------|--3--------1--------|--3--3------------L--|

                                          Outro
  W                   W                   E  Q.     E  Q.      
|-------------------|-------------------|----------------------|
|-------------------|-------------------|----------------------|
|-------------------|-------------------|----------------------|
|--5----------------|--7----------------|--6--5------6--5------|
|--5----------------|--7----------------|----------------------|
|--3----------------|--5----------------|----------------------|


  E  E  E  Q    E  E  E     E  E  E  E  E  E  E  E    
|-------------------------|--------------------------||
|-------------------------|--------------------------||
|-------------------------|--------------------------||
|--6--5--8--5----8--6--5--|--------------------------||
|-------------------------|--8--5--------------------||
|-------------------------|--------------------------||




Duration Legend
---------------
W - whole
H - half
Q - quarter
E - 8th
S - 16th
T - 32nd
X - 64th
. - note dotted
|-n-|  - n-tuplets





Comments


Popular Samsas Traum tabs & chords
Die Zrtlichkeit Der Verdammten Bass Tabs
Dein Schnster Augenblick Chords
Die Stunde Null Chords
Tineoidea Chords
Tineoidea 1 Chords
Tineoidea Intro 1 Tabs
Blut Ist In Der Waschmuschel Ukulele
Ein Name Im Kristall Ukulele
Ingwerbrot Und Nuesse Ukulele
Mohn Auf Weien Laken Ukulele


Song lyrics



↑ Back to top | Tablatures and chords are parodies/interpretations of the original songs. You may use it for private study, scholarship, research or language learning purposes only
© 2014 AZChords.com Contact us | Privacy policy | DMCA | Add/correct tabs | Request tabs | Top 50 tabs