» » »

Die Zrtlichkeit Der Verdammten Bass tabs (ver.1)

Artists:  A B C D E F G H I J K L M N O P Q R S T U V W X Y Z # 

Die Zrtlichkeit Der Verdammten Bass tabs (ver.1)

Samsas Traum
Rating:
0/5 (0 votes)

Hard to play? Try these video lessons and learn fast.
                
Tuning: Standard
Tempo: ~155bpm

G|-------------------------------------------------------------------|
D|-------------------------------------------------------------------|
A|-5-5---5-6-6---6-5-5---5-4--------5-5---5-6-6---6-5-5-8-5-4--------|
E|-----5-------5-------5----------------5-------5--------------------|

G|-------------------------------------------------------------------|
D|--------------------------------------------------------7-6--------|
A|-5-5---5-6-6---6-5-5---5-4--------5-5---5-6-6---6-5-5-8------------|
E|-----5-------5-------5----------------5-------5--------------------|

Maybe i'll work on the rest of the song too... But for now: That's the Bass riff as 
in the intro and the bass break at about 2:38. For the correct tempo listen to the song (but 
should be around 155 bpm)
So have fun
            
Hard to play? Try these video lessons and learn fast. | Correct




comments powered by Disqus
↑ Back to top | Tablatures and chords are parodies/interpretations of the original songs. You may use it for private study, scholarship, research or language learning purposes only