» » »

Bootleg Saint Tabs (ver.1)

Artists:  A B C D E F G H I J K L M N O P Q R S T U V W X Y Z # 

Bootleg Saint Tabs (ver.1)

Sam Roberts
Rating:
2/5 (1 vote)

Tabs too difficult? Try these video lessons and learn fast.
                If you see two circles at the end of each bar, don't play them, because thier not notes. It's a repeat sign.
e|------------------|
B|-----------------O|
G|------------------|
D|------------------|
A|-----------------O|
E|------------------|


intro:
e|-------4-5-------------4-5---4----|
B|-4-5-4-----4-5-4-4-5-4-----4---5--|
G|----------------------------------|
D|----------------------------------|
A|----------------------------------|
E|----------------------------------|

e|--------------------7-7--9---------------------|
B|--------------------7-7--9---------------------|
G|--------------------5-5--7---------------------|
D|--7/9-9-9-9--7/9-9----------7/9-9-9-9--7/9-9---|
A|--7/9-9-9-9--7/9-9----------7/9-9-9-9--7/9-9---|
E|--5/7-7-7-7--5/7-7----------5/7-7-7-7--5/7-7---|

Come make your complaint...
e|---------------------------------------------|
B|---------------------------------------------|
G|---------------------------------------------|
D|--7/9-9-9-9--7/9-9-9-9--7/9-9-9-9--7/9-9-9-9-|
A|--7/9-9-9-9--7/9-9-9-9--7/9-9-9-9--7/9-9-9-9-|
E|--5/7-7-7-7--5/7-7-7-7--5/7-7-7-7--5/7-7-7-7-|

Black boots...
e|-------------------7-7-9----------------------|
B|-------------------7-7-9----------------------|
G|-------------------5-5-7----------------------|
D|--7/9-9-9-9--7/9-9-------7/9-9-9-9--7/9-9-9-9-|
A|--5/9-9-9-9--7/9-9-------7/9-9-9-9--7/9-9-9-9-|
E|--5/7-7-7-7--5/7-7-------5/7-7-7-7--5/7-7-7-7-|

He'll sacrifice...
e|-17-17-17-17-17-17-17-17-16-19-19-19-19--|
B|----------------------------------------O|
G|-----------------------------------------|x 2
D|-----------------------------------------|
A|----------------------------------------O|
E|-----------------------------------------|

He remembers a time...
e|---------------------------------------------|
B|---------------------------------------------|
G|---------------------------------------------|
D|--7/9-9-9-9--7/9-9-9-9--7/9-9-9-9--7/9-9-9-9-|
A|--7/9-9-9-9--7/9-9-9-9--7/9-9-9-9--7/9-9-9-9-|
E|--5/7-7-7-7--5/7-7-7-7--5/7-7-7-7--5/7-7-7-7-|

Then old captain industry...
e|-------------------7-7-9----------------------|
B|-------------------7-7-9----------------------|
G|-------------------5-5-7----------------------|
D|--7/9-9-9-9--7/9-9-------7/9-9-9-9--7/9-9-9-9-|
A|--5/9-9-9-9--7/9-9-------7/9-9-9-9--7/9-9-9-9-|
E|--5/7-7-7-7--5/7-7-------5/7-7-7-7--5/7-7-7-7-|

He'll sacrifice...
e|-17-17-17-17-17-17-17-17-16-19-19-19-19--|
B|----------------------------------------O|
G|-----------------------------------------|x 2
D|-----------------------------------------|
A|----------------------------------------O|
E|-----------------------------------------|

The Laws might sleep...
e|------------------------------------------------------------------------|
B|------------------------------------------------------------------------|
G|7-7-7-7-7-7-7-7-7\6-6-6-6-6-6-6/9-9-9-9-9-9-9-9-9-7-9-----9-7-9-7-9-----|
D|7-7-7-7-7-7-7-7-7\6-6-6-6-6-6-6/9-9-9-9-9-9-9-9-9-7-9-9-9-9-7-9-7-9-9-9-|
A|5-5-5-5-5-5-5-5-5\4-4-4-4-4-4-4/7-7-7-7-7-7-7-7-7-5-7-9-9-7-5-7-7-5-9-9-|
E|------------------------------------------------------7-7-----------7-7-|

Lions for sheep...
e|--------------------------------------------|
B|--------------------------------------------|
G|9-9-9-9-9-9-9-9-9-7-9-----9-7-9-7-9-----9-7-|
D|9-9-9-9-9-9-9-9-9-7-9-9-9-9-7-9-7-9-9-9-9-7-|
A|7-7-7-7-7-7-7-7-7-5-7-9-9-7-5-7-7-5-9-9-7-5-|
E|----------------------7-7-----------7-7-----|

He wears a ring...
e|------------------------------------------------------------------|
B|-----------------------------------------------------------------O|
G|-9-9-9-9-9-9-9-9-9-9-9-9-9-9-9-9----------------------------------|x2
D|-9-9-9-9-9-9-9-9-9-9-9-9-9-9-9-9-9-9-9-9-9-9-9-9-9-9-9-9-9-9-9-9--|
A|-7-7-7-7-7-7-7-7-7-7-7-7-7-7-7-7-9-9-9-9-9-9-9-9-9-9-9-9-9-9-9-9-O|
E|---------------------------------7-7-7-7-7-7-7-7-7-7-7-7-7-7-7-7--|

The Laws might sleep...
e|-------------------------------|
B|-------------------------------|
G|7-7-7-7-7-7-7-7-7\6-6-6-6-6-6-6|
D|7-7-7-7-7-7-7-7-7\6-6-6-6-6-6-6|
A|5-5-5-5-5-5-5-5-5\4-4-4-4-4-4-4|
E|-------------------------------|

Lions for sheep...
e|--------------------------------------------|
B|--------------------------------------------|
G|9-9-9-9-9-9-9-9-9-7-9-----9-7-9-7-9-----9-7-|
D|9-9-9-9-9-9-9-9-9-7-9-9-9-9-7-9-7-9-9-9-9-7-|
A|7-7-7-7-7-7-7-7-7-5-7-9-9-7-5-7-7-5-9-9-7-5-|
E|----------------------7-7-----------7-7-----|

He came down...
e|---------------------------------------------|
B|---------------------------------------------|
G|---------------------------------------------|
D|--7/9-9-9-9--7/9-9-9-9--7/9-9-9-9--7/9-9-9-9-|
A|--7/9-9-9-9--7/9-9-9-9--7/9-9-9-9--7/9-9-9-9-|
E|--5/7-7-7-7--5/7-7-7-7--5/7-7-7-7--5/7-7-7-7-|

And you can pay...
e|-------------------7-7-9----------------------|
B|-------------------7-7-9----------------------|
G|-------------------5-5-7----------------------|
D|--7/9-9-9-9--7/9-9-------7/9-9-9-9--7/9-9-9-9-|
A|--5/9-9-9-9--7/9-9-------7/9-9-9-9--7/9-9-9-9-|
E|--5/7-7-7-7--5/7-7-------5/7-7-7-7--5/7-7-7-7-|

He'll sacrifice...
e|-17-17-17-17-17-17-17-17-16-19-19-19-19--|
B|----------------------------------------O|
G|-----------------------------------------|x 2
D|-----------------------------------------|
A|----------------------------------------O|
E|-----------------------------------------|

The Laws might sleep...
e|-------------------------------|
B|-------------------------------|
G|7-7-7-7-7-7-7-7-7\6-6-6-6-6-6-6|
D|7-7-7-7-7-7-7-7-7\6-6-6-6-6-6-6|
A|5-5-5-5-5-5-5-5-5\4-4-4-4-4-4-4|
E|-------------------------------|

Lions for sheep...
e|--------------------------------------------|
B|--------------------------------------------|
G|9-9-9-9-9-9-9-9-9-7-9-----9-7-9-7-9-----9-7-|
D|9-9-9-9-9-9-9-9-9-7-9-9-9-9-7-9-7-9-9-9-9-7-|
A|7-7-7-7-7-7-7-7-7-5-7-9-9-7-5-7-5-5-9-9-7-5-|
E|----------------------7-7-----------7-7-----|

The Bootleg Saint...
e|-------------------------------|
B|-------------------------------|
G|7-7-7-7-7-7-7-7-7\6-6-6-6-6-6-6|
D|7-7-7-7-7-7-7-7-7\6-6-6-6-6-6-6|
A|5-5-5-5-5-5-5-5-5\4-4-4-4-4-4-4|
E|-------------------------------|

Between an everyman...
e|------------------------|
B|------------------------|
G|9-9-9-9-9-9-9-9-9-7-9---|
D|9-9-9-9-9-9-9-9-9-7-9-9-|
A|7-7-7-7-7-7-7-7-7-5-7-9-|
E|----------------------7-|

e|-------------------------------------------------|
B|-------------------------------------------------|
G|-----------------------------------------7-7-7-9-|
D|-9-9-7-7-4-4-2-2-9-9-7-7-4-4-2-2-9-9-7-7-7-7-7-9-|
A|-9-9-7-7-4-4-2-2-9-9-7-7-4-4-2-2-9-9-7-7-5-5-5-7-|
E|-7-7-5-5-2-2-0-0-7-7-5-5-2-2-0-0-7-7-5-5---------|

e|------------------|
B|-----------------O|
G|------------------|x2
D|-9-9-7-7-4-4-2-2--|
A|-9-9-7-7-4-4-2-2-O|
E|-7-7-5-5-2-2-0-0--|

e|-------------------|
B|-------------------|
G|-------------------|
D|-9-9-7-7-4-4-2-2-9-|
A|-9-9-7-7-4-4-2-2-9-|
E|-7-7-5-5-2-2-0-0-7-|
   (hold last chord)


| /  slide up
| \  slide down
| h  hammer-on
| p  pull-off
| ~  vibrato
| +  harmonic
| x  Mute note
            
Tabs too difficult? Try these video lessons and learn fast.




comments powered by Disqus
↑ Back to top | Tablatures and chords are parodies/interpretations of the original songs. You may use it for private study, scholarship, research or language learning purposes only