» » »

Sam Roberts, Don't Walk Away Eileen Bass tabs (ver.1)

Artists:  A B C D E F G H I J K L M N O P Q R S T U V W X Y Z # 

Don't Walk Away Eileen Bass tabs (ver.1)

Sam Roberts Tabs
Rating:
0/5 (0 votes)
Don't Walk Away Eileen lessons Tabs too difficult? Try these video lessons and learn fast
                		     Dont Walk away Eileen - Sam Roberts (BASS)
-------------------------------------------------------------------------------


Tuning:standard

You'll have to listen to the song to peice it together but other than that I'm sure it 
serve the purpose....the more people playing Sam Roberts the better!

Intro:

G|---------------------------------------------------------------------------|
D|--------------------3------------------------------------------------------|
A|---333333333333--------3---------------------------------------------------|
E|--------------------------3------------------------------------------------|

Verse:

G|---------------------------------------------------------------------------|
D|-----------3---------------------------------------------------------------|
A|---3----------3------------------------------------------------------------|
E|-----------------3---------------------------------------------------------|


Chorus:


G|-----------------------------------------------------------------------------|
D|---3---3--------3---3--------3---3--------3--3-------------------------------|
A|---------33-----------33-----------33----------3-----------------------------|
E|-------------------------------------------------3---------------------------|

Bridge:

G|---------------------------------------------------------------------------|
D|---------------------------------------------------------------------------|
A|---3----3-----3----3-------------------------------------------------------|
E|-----3-----3----3----3-----------------------------------------------------|
            

comments powered by Disqus
↑ Back to top | Sam Roberts Bass for Don't Walk Away Eileen. Lyrics for acoustic guitar and electric guitar. Tablatures and chords are parodies/interpretations of the original songs. You may use it for private study, scholarship, research or language learning purposes only